0
SECTION
2
HEADER
9
$ACADVER
1
AC1012
9
$EXTMIN
10
30.160000
20
17.180000
30
0.0
9
$EXTMAX
10
38.000000
20
23.310000
30
0.0
9
$LIMMIN
10
766.064000
20
436.372000
9
$LIMMAX
10
965.200000
20
592.074000
9
$DIMSCALE
40
1.000000
9
$PDMODE
70
2
9
$PDSIZE
40
0.0
  9
$HANDSEED
  5
7ae
0
ENDSEC
0
SECTION
2
CLASSES
0
ENDSEC
0
SECTION
2
TABLES
0
TABLE
2
LTYPE
5
1e
100
AcDbSymbolTable
70
12
0
LTYPE
5
1f
100
AcDbSymbolTableRecord
100
AcDbLinetypeTableRecord
2
BYBLOCK
70
0
3

72
65
73
0
40
0.0
0
LTYPE
5
20
100
AcDbSymbolTableRecord
100
AcDbLinetypeTableRecord
2
BYLAYER
70
0
3

72
65
73
0
40
0.0
0
LTYPE
5
21
100
AcDbSymbolTableRecord
100
AcDbLinetypeTableRecord
2
CONTINUOUS
70
64
3
Solid line
72
65
73
0
40
0.0
0
LTYPE
5
22
100
AcDbSymbolTableRecord
100
AcDbLinetypeTableRecord
2
DASHED
70
64
3
__ __ __ __ __ __ __ __ __ __ __ __ __ __ __
72
65
73
2
40
0.75
49
0.5
74
0
49
-0.25
74
0
0
LTYPE
5
23
100
AcDbSymbolTableRecord
100
AcDbLinetypeTableRecord
2
DOT
70
64
3
...............................................
72
65
73
2
40
0.25
49
0.0
74
0
49
-0.25
74
0
0
LTYPE
5
24
100
AcDbSymbolTableRecord
100
AcDbLinetypeTableRecord
2
DASHDOT
70
64
3
__ . __ . __ . __ . __ . __ . __ . __ . __ . --
72
65
73
4
40
1.0
49
0.5
74
0
49
-0.25
74
0
49
0.0
74
0
49
-0.25
74
0
0
LTYPE
5
25
100
AcDbSymbolTableRecord
100
AcDbLinetypeTableRecord
2
CENTER
70
64
3
____ _ ____ _ ____ _ ____ _ ____ _ ____ _ ____
72
65
73
4
40
2.0
49
1.25
74
0
49
-0.25
74
0
49
0.25
74
0
49
-0.25
74
0
0
LTYPE
5
26
100
AcDbSymbolTableRecord
100
AcDbLinetypeTableRecord
2
PHANTOM
70
64
3
_____ _ _ _____ _ _ _____ _ _ _____ _ _ ____
72
65
73
6
40
2.5
49
1.25
74
0
49
-0.25
74
0
49
0.25
74
0
49
-0.25
74
0
49
0.25
74
0
49
-0.25
74
0
0
LTYPE
5
27
100
AcDbSymbolTableRecord
100
AcDbLinetypeTableRecord
2
HIDDEN
70
64
3
_ _ _ _ _ _ _ _ _ _ _ _ _ _ _ _ _ _ _ _ _ _ _
72
65
73
2
40
0.375
49
0.25
74
0
49
-0.125
74
0
0
LTYPE
5
28
100
AcDbSymbolTableRecord
100
AcDbLinetypeTableRecord
2
BORDER
70
64
3
__ __ . __ __ . __ __ . __ __ . __ __ . __ __
72
65
73
6
40
1.75
49
0.5
74
0
49
-0.25
74
0
49
0.5
74
0
49
-0.25
74
0
49
0.0
74
0
49
-0.25
74
0
0
LTYPE
5
29
100
AcDbSymbolTableRecord
100
AcDbLinetypeTableRecord
2
DIVIDE
70
64
3
__ . . __ . . __ . . __ . . __ . . __ . . __
72
65
73
6
40
1.25
49
0.5
74
0
49
-0.25
74
0
49
0.0
74
0
49
-0.25
74
0
49
0.0
74
0
49
-0.25
74
0
0
LTYPE
5
2a
100
AcDbSymbolTableRecord
100
AcDbLinetypeTableRecord
2
DOT2
70
64
3
...............................................
72
65
73
2
40
0.125
49
0.0
74
0
49
-0.125
74
0
0
ENDTAB
0
TABLE
2
STYLE
5
2b
100
AcDbSymbolTable
70
1
0
STYLE
5
2c
100
AcDbSymbolTableRecord
100
AcDbTextStyleTableRecord
2
STANDARD
70
64
40
0.0
41
1.0
50
0.0
71
0
42
5.0
3
txt
4
bigfont
0
ENDTAB
0
TABLE
2
LAYER
5
2d
100
AcDbSymbolTable
70
1
0
LAYER
5
2e
100
AcDbSymbolTableRecord
100
AcDbLayerTableRecord
2
0
70
0
62
7
6
CONTINUOUS
0
ENDTAB
0
TABLE
2
APPID
5
2f
100
AcDbSymbolTable
70
1
0
APPID
5
30
100
AcDbSymbolTableRecord
100
AcDbRegAppTableRecord
2
ACAD
70
64
0
ENDTAB
0
TABLE
2
DIMSTYLE
5
31
100
AcDbSymbolTable
70
0
0
ENDTAB
0
TABLE
2
UCS
5
32
100
AcDbSymbolTable
70
0
0
ENDTAB
0
TABLE
2
VIEW
5
33
100
AcDbSymbolTable
70
0
0
ENDTAB
0
TABLE
2
VPORT
5
34
100
AcDbSymbolTable
70
0
0
ENDTAB
0
TABLE
2
BLOCK_RECORD
5
35
100
AcDbSymbolTable
70
0
0
BLOCK_RECORD
5
36
100
AcDbSymbolTableRecord
100
AcDbBlockTableRecord
2
*MODEL_SPACE
0
BLOCK_RECORD
5
37
100
AcDbSymbolTableRecord
100
AcDbBlockTableRecord
2
*PAPER_SPACE
0
BLOCK_RECORD
5
38
100
AcDbSymbolTableRecord
100
AcDbBlockTableRecord
2
OPEN
0
BLOCK_RECORD
5
39
100
AcDbSymbolTableRecord
100
AcDbBlockTableRecord
2
HALF
0
BLOCK_RECORD
5
3a
100
AcDbSymbolTableRecord
100
AcDbBlockTableRecord
2
CLOSEDBLANK
0
BLOCK_RECORD
5
3b
100
AcDbSymbolTableRecord
100
AcDbBlockTableRecord
2
HALFCLOSE_R
0
BLOCK_RECORD
5
3c
100
AcDbSymbolTableRecord
100
AcDbBlockTableRecord
2
DOT
0
BLOCK_RECORD
5
3d
100
AcDbSymbolTableRecord
100
AcDbBlockTableRecord
2
HALFOPEN_R
0
BLOCK_RECORD
5
3e
100
AcDbSymbolTableRecord
100
AcDbBlockTableRecord
2
CLOSEDF
0
BLOCK_RECORD
5
3f
100
AcDbSymbolTableRecord
100
AcDbBlockTableRecord
2
HALF_R
0
ENDTAB
0
ENDSEC
0
SECTION
2
BLOCKS
0
BLOCK
5
40
100
AcDbEntity
8
0
100
AcDbBlockBegin
2
*MODEL_SPACE
70
0
10
0.0
20
0.0
30
0.0
3
*MODEL_SPACE
1

0
ENDBLK
5
41
100
AcDbEntity
8
0
100
AcDbBlockEnd
0
BLOCK
5
42
100
AcDbEntity
67
1
8
0
100
AcDbBlockBegin
2
*PAPER_SPACE
70
0
10
0.0
20
0.0
30
0.0
3
*PAPER_SPACE
1

0
ENDBLK
5
43
100
AcDbEntity
67
1
8
0
100
AcDbBlockEnd
0
BLOCK
5
44
100
AcDbEntity
8
0
100
AcDbBlockBegin
2
OPEN
70
0
10
0.0
20
0.0
30
0.0
3
OPEN
1

0
LINE
5
45
100
AcDbEntity
8
0
6
BYBLOCK
62
0
100
AcDbLine
10
0.000000
20
0.000000
11
-1.000000
21
0.000000
0
LINE
5
46
100
AcDbEntity
8
0
6
BYBLOCK
62
0
100
AcDbLine
10
-1.000000
20
-0.166667
11
0.000000
21
0.000000
0
LINE
5
47
100
AcDbEntity
8
0
6
BYBLOCK
62
0
100
AcDbLine
10
-1.000000
20
0.166667
11
0.000000
21
0.000000
0
ENDBLK
5
48
100
AcDbEntity
8
0
100
AcDbBlockEnd
0
BLOCK
5
49
100
AcDbEntity
8
0
100
AcDbBlockBegin
2
HALF
70
0
10
0.0
20
0.0
30
0.0
3
HALF
1

0
SOLID
5
4a
100
AcDbEntity
8
0
6
BYBLOCK
62
0
100
AcDbTrace
10
-1.000000
20
0.166667
11
-1.000000
21
-0.166667
12
0.000000
22
0.000000
13
0.000000
23
0.000000
0
ENDBLK
5
4b
100
AcDbEntity
8
0
100
AcDbBlockEnd
0
BLOCK
5
4c
100
AcDbEntity
8
0
100
AcDbBlockBegin
2
CLOSEDBLANK
70
0
10
0.0
20
0.0
30
0.0
3
CLOSEDBLANK
1

0
LINE
5
4d
100
AcDbEntity
8
0
6
BYBLOCK
62
0
100
AcDbLine
10
-1.000000
20
0.166667
11
-1.000000
21
-0.166667
0
LINE
5
4e
100
AcDbEntity
8
0
6
BYBLOCK
62
0
100
AcDbLine
10
0.000000
20
0.000000
11
-1.000000
21
-0.166667
0
LINE
5
4f
100
AcDbEntity
8
0
6
BYBLOCK
62
0
100
AcDbLine
10
-1.000000
20
0.166667
11
0.000000
21
0.000000
0
ENDBLK
5
50
100
AcDbEntity
8
0
100
AcDbBlockEnd
0
BLOCK
5
51
100
AcDbEntity
8
0
100
AcDbBlockBegin
2
HALFCLOSE_R
70
0
10
0.0
20
0.0
30
0.0
3
HALFCLOSE_R
1

0
LINE
5
52
100
AcDbEntity
8
0
6
BYBLOCK
62
0
100
AcDbLine
10
-1.000000
20
-0.166667
11
-1.000000
21
0.000000
0
LINE
5
53
100
AcDbEntity
8
0
6
BYBLOCK
62
0
100
AcDbLine
10
-1.000000
20
-0.166667
11
0.000000
21
0.000000
0
LINE
5
54
100
AcDbEntity
8
0
6
BYBLOCK
62
0
100
AcDbLine
10
0.000000
20
0.000000
11
-1.000000
21
0.000000
0
ENDBLK
5
55
100
AcDbEntity
8
0
100
AcDbBlockEnd
0
BLOCK
5
56
100
AcDbEntity
8
0
100
AcDbBlockBegin
2
DOT
70
0
10
0.0
20
0.0
30
0.0
3
DOT
1

0
LINE
5
57
100
AcDbEntity
8
0
6
BYBLOCK
62
0
100
AcDbLine
10
0.000000
20
0.000000
11
-1.000000
21
0.000000
0
POLYLINE
5
58
100
AcDbEntity
8
0
6
BYBLOCK
62
0
100
AcDb2dPolyline
66
1
10
0.0
20
0.0
30
0.0
70
1
40
0.166667
41
0.166667
0
VERTEX
5
59
100
AcDbEntity
8
0
100
AcDbVertex
100
AcDb2dVertex
62
12
10
-0.083333
20
0.000000
42
1.000000
0
VERTEX
5
5a
100
AcDbEntity
8
0
100
AcDbVertex
100
AcDb2dVertex
62
12
10
0.083333
20
0.000000
42
1.000000
0
SEQEND
5
5b
100
AcDbEntity
8
0
0
ENDBLK
5
5c
100
AcDbEntity
8
0
100
AcDbBlockEnd
0
BLOCK
5
5d
100
AcDbEntity
8
0
100
AcDbBlockBegin
2
HALFOPEN_R
70
0
10
0.0
20
0.0
30
0.0
3
HALFOPEN_R
1

0
LINE
5
5e
100
AcDbEntity
8
0
6
BYBLOCK
62
0
100
AcDbLine
10
-1.000000
20
-0.166667
11
0.000000
21
0.000000
0
LINE
5
5f
100
AcDbEntity
8
0
6
BYBLOCK
62
0
100
AcDbLine
10
0.000000
20
0.000000
11
-1.000000
21
0.000000
0
ENDBLK
5
60
100
AcDbEntity
8
0
100
AcDbBlockEnd
0
BLOCK
5
61
100
AcDbEntity
8
0
100
AcDbBlockBegin
2
CLOSEDF
70
0
10
0.0
20
0.0
30
0.0
3
CLOSEDF
1

0
SOLID
5
62
100
AcDbEntity
8
0
6
BYBLOCK
62
0
100
AcDbTrace
10
-1.000000
20
0.166667
11
-1.000000
21
-0.166667
12
0.000000
22
0.000000
13
0.000000
23
0.000000
0
ENDBLK
5
63
100
AcDbEntity
8
0
100
AcDbBlockEnd
0
BLOCK
5
64
100
AcDbEntity
8
0
100
AcDbBlockBegin
2
HALF_R
70
0
10
0.0
20
0.0
30
0.0
3
HALF_R
1

0
SOLID
5
65
100
AcDbEntity
8
0
6
BYBLOCK
62
0
100
AcDbTrace
10
-1.000000
20
-0.166667
11
-1.000000
21
0.000000
12
0.000000
22
0.000000
13
0.000000
23
0.000000
0
ENDBLK
5
66
100
AcDbEntity
8
0
100
AcDbBlockEnd
0
ENDSEC
0
SECTION
2
ENTITIES
0
LINE
5
67
100
AcDbEntity
8
1
100
AcDbLine
6
DOT2
62
5
10
948.887830
20
576.837308
11
946.027830
21
576.837308
0
LINE
5
68
100
AcDbEntity
8
1
100
AcDbLine
6
CONTINUOUS
62
5
10
945.698234
20
566.337308
11
945.697857
21
566.337308
0
LINE
5
69
100
AcDbEntity
8
1
100
AcDbLine
6
DOT2
62
5
10
948.887830
20
571.437308
11
946.027830
21
571.437308
0
POLYLINE
5
6a
100
AcDbEntity
8
1
6
CONTINUOUS
62
5
100
AcDb2dPolyline
66
1
10
0.0
20
0.0
30
0.0
70
0
0
VERTEX
5
6b
100
AcDbEntity
8
1
100
AcDbVertex
100
AcDb2dVertex
62
5
10
945.699075
20
561.937308
0
VERTEX
5
6c
100
AcDbEntity
8
1
100
AcDbVertex
100
AcDb2dVertex
62
5
10
947.158775
20
561.937308
0
VERTEX
5
6d
100
AcDbEntity
8
1
100
AcDbVertex
100
AcDb2dVertex
62
5
10
947.358775
20
562.137308
0
VERTEX
5
6e
100
AcDbEntity
8
1
100
AcDbVertex
100
AcDb2dVertex
62
5
10
947.558775
20
562.137308
0
VERTEX
5
6f
100
AcDbEntity
8
1
100
AcDbVertex
100
AcDb2dVertex
62
5
10
947.558775
20
567.737308
0
VERTEX
5
70
100
AcDbEntity
8
1
100
AcDbVertex
100
AcDb2dVertex
62
5
10
947.358775
20
567.737308
0
VERTEX
5
71
100
AcDbEntity
8
1
100
AcDbVertex
100
AcDb2dVertex
62
5
10
947.158775
20
567.937308
0
VERTEX
5
72
100
AcDbEntity
8
1
100
AcDbVertex
100
AcDb2dVertex
62
5
10
945.699075
20
567.937308
0
SEQEND
5
73
100
AcDbEntity
8
1
0
LINE
5
74
100
AcDbEntity
8
1
100
AcDbLine
6
CONTINUOUS
62
5
10
947.158775
20
567.937308
11
947.158775
21
561.937308
0
POLYLINE
5
75
100
AcDbEntity
8
1
6
CONTINUOUS
62
5
100
AcDb2dPolyline
66
1
10
0.0
20
0.0
30
0.0
70
1
0
VERTEX
5
76
100
AcDbEntity
8
1
100
AcDbVertex
100
AcDb2dVertex
62
5
10
947.158775
20
567.937308
0
VERTEX
5
77
100
AcDbEntity
8
1
100
AcDbVertex
100
AcDb2dVertex
62
5
10
946.458775
20
567.937308
0
VERTEX
5
78
100
AcDbEntity
8
1
100
AcDbVertex
100
AcDb2dVertex
62
5
10
946.458775
20
561.937308
0
VERTEX
5
79
100
AcDbEntity
8
1
100
AcDbVertex
100
AcDb2dVertex
62
5
10
947.158775
20
561.937308
0
VERTEX
5
7a
100
AcDbEntity
8
1
100
AcDbVertex
100
AcDb2dVertex
62
5
10
947.158775
20
567.937308
0
SEQEND
5
7b
100
AcDbEntity
8
1
0
LINE
5
7c
100
AcDbEntity
8
1
100
AcDbLine
6
CONTINUOUS
62
5
10
946.458775
20
561.937308
11
946.458775
21
567.937308
0
LINE
5
7d
100
AcDbEntity
8
1
100
AcDbLine
6
CONTINUOUS
62
5
10
947.358775
20
562.137308
11
947.358775
21
567.737308
0
LINE
5
7e
100
AcDbEntity
8
1
100
AcDbLine
6
CONTINUOUS
62
5
10
945.697098
20
581.738625
11
945.699544
21
557.238626
0
LINE
5
7f
100
AcDbEntity
8
1
100
AcDbLine
6
CONTINUOUS
62
5
10
946.027830
20
576.997308
11
946.027830
21
571.277308
0
LINE
5
80
100
AcDbEntity
8
1
100
AcDbLine
6
CONTINUOUS
62
5
10
948.887830
20
576.837308
11
948.887830
21
571.437308
0
LINE
5
81
100
AcDbEntity
8
1
100
AcDbLine
6
CONTINUOUS
62
5
10
948.727830
20
576.997308
11
948.727830
21
571.277308
0
POLYLINE
5
82
100
AcDbEntity
8
1
6
CONTINUOUS
62
5
100
AcDb2dPolyline
66
1
10
0.0
20
0.0
30
0.0
70
0
0
VERTEX
5
83
100
AcDbEntity
8
1
100
AcDbVertex
100
AcDb2dVertex
62
5
10
945.697857
20
576.997308
0
VERTEX
5
84
100
AcDbEntity
8
1
100
AcDbVertex
100
AcDb2dVertex
62
5
10
948.727830
20
576.997308
0
VERTEX
5
85
100
AcDbEntity
8
1
100
AcDbVertex
100
AcDb2dVertex
62
5
10
948.887830
20
576.837308
0
VERTEX
5
86
100
AcDbEntity
8
1
100
AcDbVertex
100
AcDb2dVertex
62
5
10
949.207830
20
576.837308
0
VERTEX
5
87
100
AcDbEntity
8
1
100
AcDbVertex
100
AcDb2dVertex
62
5
10
949.207830
20
574.137308
0
VERTEX
5
88
100
AcDbEntity
8
1
100
AcDbVertex
100
AcDb2dVertex
62
5
10
949.207830
20
571.437308
0
VERTEX
5
89
100
AcDbEntity
8
1
100
AcDbVertex
100
AcDb2dVertex
62
5
10
948.887830
20
571.437308
0
VERTEX
5
8a
100
AcDbEntity
8
1
100
AcDbVertex
100
AcDb2dVertex
62
5
10
948.727830
20
571.277308
0
VERTEX
5
8b
100
AcDbEntity
8
1
100
AcDbVertex
100
AcDb2dVertex
62
5
10
945.697857
20
571.277308
0
SEQEND
5
8c
100
AcDbEntity
8
1
0
POLYLINE
5
8d
100
AcDbEntity
8
1
6
CONTINUOUS
62
5
100
AcDb2dPolyline
66
1
10
0.0
20
0.0
30
0.0
70
1
0
VERTEX
5
8e
100
AcDbEntity
8
1
100
AcDbVertex
100
AcDb2dVertex
62
5
10
929.096231
20
578.237525
0
VERTEX
5
8f
100
AcDbEntity
8
1
100
AcDbVertex
100
AcDb2dVertex
62
5
10
929.296449
20
578.237525
0
VERTEX
5
90
100
AcDbEntity
8
1
100
AcDbVertex
100
AcDb2dVertex
62
5
10
929.296449
20
580.837525
0
VERTEX
5
91
100
AcDbEntity
8
1
100
AcDbVertex
100
AcDb2dVertex
62
5
10
929.096231
20
580.837525
0
SEQEND
5
92
100
AcDbEntity
8
1
0
LINE
5
93
100
AcDbEntity
8
1
100
AcDbLine
6
CONTINUOUS
62
5
10
930.697517
20
577.537128
11
930.697118
21
581.537128
0
LINE
5
94
100
AcDbEntity
8
1
100
AcDbLine
6
CONTINUOUS
62
5
10
931.097068
20
582.037168
11
927.696463
21
582.037308
0
LINE
5
95
100
AcDbEntity
8
1
100
AcDbLine
6
CONTINUOUS
62
5
10
926.738889
20
576.751269
11
926.738889
21
575.051269
0
POLYLINE
5
96
100
AcDbEntity
8
1
6
CONTINUOUS
62
5
100
AcDb2dPolyline
66
1
10
0.0
20
0.0
30
0.0
70
1
0
VERTEX
5
97
100
AcDbEntity
8
1
100
AcDbVertex
100
AcDb2dVertex
62
5
10
927.696463
20
576.751269
0
VERTEX
5
98
100
AcDbEntity
8
1
100
AcDbVertex
100
AcDb2dVertex
62
5
10
926.738889
20
576.751269
0
VERTEX
5
99
100
AcDbEntity
8
1
100
AcDbVertex
100
AcDb2dVertex
62
5
10
926.696463
20
576.708842
0
VERTEX
5
9a
100
AcDbEntity
8
1
100
AcDbVertex
100
AcDb2dVertex
62
5
10
926.696463
20
575.093695
0
VERTEX
5
9b
100
AcDbEntity
8
1
100
AcDbVertex
100
AcDb2dVertex
62
5
10
926.738889
20
575.051269
0
VERTEX
5
9c
100
AcDbEntity
8
1
100
AcDbVertex
100
AcDb2dVertex
62
5
10
927.696463
20
575.051269
0
VERTEX
5
9d
100
AcDbEntity
8
1
100
AcDbVertex
100
AcDb2dVertex
62
5
10
927.696463
20
576.751269
0
SEQEND
5
9e
100
AcDbEntity
8
1
0
LINE
5
9f
100
AcDbEntity
8
1
100
AcDbLine
6
DOT2
62
5
10
927.496231
20
579.537525
11
929.496231
21
579.537525
0
LINE
5
a0
100
AcDbEntity
8
1
100
AcDbLine
6
CONTINUOUS
62
5
10
927.952799
20
580.537525
11
927.952799
21
578.537525
0
POLYLINE
5
a1
100
AcDbEntity
8
1
6
CONTINUOUS
62
5
100
AcDb2dPolyline
66
1
10
0.0
20
0.0
30
0.0
70
1
0
VERTEX
5
a2
100
AcDbEntity
8
1
100
AcDbVertex
100
AcDb2dVertex
62
5
10
929.096231
20
580.537525
0
VERTEX
5
a3
100
AcDbEntity
8
1
100
AcDbVertex
100
AcDb2dVertex
62
5
10
927.952799
20
580.537525
0
VERTEX
5
a4
100
AcDbEntity
8
1
100
AcDbVertex
100
AcDb2dVertex
62
5
10
927.896231
20
580.480957
0
VERTEX
5
a5
100
AcDbEntity
8
1
100
AcDbVertex
100
AcDb2dVertex
62
5
10
927.896231
20
578.594094
0
VERTEX
5
a6
100
AcDbEntity
8
1
100
AcDbVertex
100
AcDb2dVertex
62
5
10
927.952799
20
578.537525
0
VERTEX
5
a7
100
AcDbEntity
8
1
100
AcDbVertex
100
AcDb2dVertex
62
5
10
929.096231
20
578.537525
0
VERTEX
5
a8
100
AcDbEntity
8
1
100
AcDbVertex
100
AcDb2dVertex
62
5
10
929.096231
20
580.537525
0
SEQEND
5
a9
100
AcDbEntity
8
1
0
CIRCLE
5
aa
100
AcDbEntity
8
1
100
AcDbCircle
6
DOT2
62
5
10
932.498316
20
569.537308
40
0.800000
0
LINE
5
ab
100
AcDbEntity
8
1
100
AcDbLine
6
DOT2
62
5
10
933.698316
20
569.537427
11
931.298316
21
569.537188
0
LINE
5
ac
100
AcDbEntity
8
1
100
AcDbLine
6
DOT2
62
5
10
932.498196
20
570.737308
11
932.498436
21
568.337308
0
CIRCLE
5
ad
100
AcDbEntity
8
1
100
AcDbCircle
6
CONTINUOUS
62
5
10
932.498316
20
569.537308
40
0.640000
0
LINE
5
ae
100
AcDbEntity
8
1
100
AcDbLine
6
CONTINUOUS
62
5
10
930.699514
20
557.537128
11
930.699115
21
561.537128
0
POLYLINE
5
af
100
AcDbEntity
8
1
6
CONTINUOUS
62
5
100
AcDb2dPolyline
66
1
10
0.0
20
0.0
30
0.0
70
1
0
VERTEX
5
b0
100
AcDbEntity
8
1
100
AcDbVertex
100
AcDb2dVertex
62
5
10
929.096315
20
558.237525
0
VERTEX
5
b1
100
AcDbEntity
8
1
100
AcDbVertex
100
AcDb2dVertex
62
5
10
929.296533
20
558.237525
0
VERTEX
5
b2
100
AcDbEntity
8
1
100
AcDbVertex
100
AcDb2dVertex
62
5
10
929.296533
20
560.837525
0
VERTEX
5
b3
100
AcDbEntity
8
1
100
AcDbVertex
100
AcDb2dVertex
62
5
10
929.096315
20
560.837525
0
SEQEND
5
b4
100
AcDbEntity
8
1
0
LINE
5
b5
100
AcDbEntity
8
1
100
AcDbLine
6
CONTINUOUS
62
5
10
931.099564
20
557.037168
11
927.696463
21
557.036828
0
LINE
5
b6
100
AcDbEntity
8
0
100
AcDbLine
6
DOT2
62
5
10
926.719278
20
559.537525
11
931.164278
21
559.537525
0
LINE
5
b7
100
AcDbEntity
8
1
100
AcDbLine
6
DOT2
62
5
10
927.496315
20
559.537525
11
929.496315
21
559.537525
0
LINE
5
b8
100
AcDbEntity
8
1
100
AcDbLine
6
CONTINUOUS
62
5
10
927.952884
20
560.537525
11
927.952884
21
558.537525
0
POLYLINE
5
b9
100
AcDbEntity
8
1
6
CONTINUOUS
62
5
100
AcDb2dPolyline
66
1
10
0.0
20
0.0
30
0.0
70
1
0
VERTEX
5
ba
100
AcDbEntity
8
1
100
AcDbVertex
100
AcDb2dVertex
62
5
10
929.096315
20
560.537525
0
VERTEX
5
bb
100
AcDbEntity
8
1
100
AcDbVertex
100
AcDb2dVertex
62
5
10
927.952884
20
560.537525
0
VERTEX
5
bc
100
AcDbEntity
8
1
100
AcDbVertex
100
AcDb2dVertex
62
5
10
927.896315
20
560.480957
0
VERTEX
5
bd
100
AcDbEntity
8
1
100
AcDbVertex
100
AcDb2dVertex
62
5
10
927.896315
20
558.594094
0
VERTEX
5
be
100
AcDbEntity
8
1
100
AcDbVertex
100
AcDb2dVertex
62
5
10
927.952884
20
558.537525
0
VERTEX
5
bf
100
AcDbEntity
8
1
100
AcDbVertex
100
AcDb2dVertex
62
5
10
929.096315
20
558.537525
0
VERTEX
5
c0
100
AcDbEntity
8
1
100
AcDbVertex
100
AcDb2dVertex
62
5
10
929.096315
20
560.537525
0
SEQEND
5
c1
100
AcDbEntity
8
1
0
LINE
5
c2
100
AcDbEntity
8
1
100
AcDbLine
6
CONTINUOUS
62
5
10
926.738889
20
564.023347
11
926.738889
21
562.323347
0
POLYLINE
5
c3
100
AcDbEntity
8
1
6
CONTINUOUS
62
5
100
AcDb2dPolyline
66
1
10
0.0
20
0.0
30
0.0
70
1
0
VERTEX
5
c4
100
AcDbEntity
8
1
100
AcDbVertex
100
AcDb2dVertex
62
5
10
927.696463
20
564.023347
0
VERTEX
5
c5
100
AcDbEntity
8
1
100
AcDbVertex
100
AcDb2dVertex
62
5
10
926.738889
20
564.023347
0
VERTEX
5
c6
100
AcDbEntity
8
1
100
AcDbVertex
100
AcDb2dVertex
62
5
10
926.696463
20
563.980920
0
VERTEX
5
c7
100
AcDbEntity
8
1
100
AcDbVertex
100
AcDb2dVertex
62
5
10
926.696463
20
562.365773
0
VERTEX
5
c8
100
AcDbEntity
8
1
100
AcDbVertex
100
AcDb2dVertex
62
5
10
926.738889
20
562.323347
0
VERTEX
5
c9
100
AcDbEntity
8
1
100
AcDbVertex
100
AcDb2dVertex
62
5
10
927.696463
20
562.323347
0
VERTEX
5
ca
100
AcDbEntity
8
1
100
AcDbVertex
100
AcDb2dVertex
62
5
10
927.696463
20
564.023347
0
SEQEND
5
cb
100
AcDbEntity
8
1
0
POLYLINE
5
cc
100
AcDbEntity
8
0
6
CONTINUOUS
62
5
100
AcDb2dPolyline
66
1
10
0.0
20
0.0
30
0.0
70
1
0
VERTEX
5
cd
100
AcDbEntity
8
0
100
AcDbVertex
100
AcDb2dVertex
62
5
10
930.496449
20
581.537525
0
VERTEX
5
ce
100
AcDbEntity
8
0
100
AcDbVertex
100
AcDb2dVertex
62
5
10
929.296449
20
581.537525
0
VERTEX
5
cf
100
AcDbEntity
8
0
100
AcDbVertex
100
AcDb2dVertex
62
5
10
929.296449
20
557.537525
0
VERTEX
5
d0
100
AcDbEntity
8
0
100
AcDbVertex
100
AcDb2dVertex
62
5
10
930.496449
20
557.537525
0
SEQEND
5
d1
100
AcDbEntity
8
0
0
LINE
5
d2
100
AcDbEntity
8
1
100
AcDbLine
6
CONTINUOUS
62
5
10
927.696449
20
557.037308
11
927.696449
21
582.037308
0
POLYLINE
5
d3
100
AcDbEntity
8
1
6
CONTINUOUS
62
5
100
AcDb2dPolyline
66
1
10
0.0
20
0.0
30
0.0
70
1
0
VERTEX
5
d4
100
AcDbEntity
8
1
100
AcDbVertex
100
AcDb2dVertex
62
5
10
929.296449
20
561.937308
0
VERTEX
5
d5
100
AcDbEntity
8
1
100
AcDbVertex
100
AcDb2dVertex
62
5
10
927.696449
20
561.937308
0
VERTEX
5
d6
100
AcDbEntity
8
1
100
AcDbVertex
100
AcDb2dVertex
62
5
10
927.696449
20
577.137308
0
VERTEX
5
d7
100
AcDbEntity
8
1
100
AcDbVertex
100
AcDb2dVertex
62
5
10
929.296449
20
577.137308
0
SEQEND
5
d8
100
AcDbEntity
8
1
0
ARC
5
d9
100
AcDbEntity
8
1
100
AcDbCircle
6
CONTINUOUS
62
5
10
945.499544
20
557.238606
40
0.200000
100
AcDbArc
50
-89.994279
51
0.005720
0
LINE
5
da
100
AcDbEntity
8
1
100
AcDbLine
6
CONTINUOUS
62
5
10
945.499564
20
557.038606
11
931.099564
21
557.037168
0
ARC
5
db
100
AcDbEntity
8
1
100
AcDbCircle
6
CONTINUOUS
62
5
10
931.099524
20
557.437168
40
0.400000
100
AcDbArc
50
-179.994278
51
-89.994279
0
POLYLINE
5
dc
100
AcDbEntity
8
1
6
CONTINUOUS
62
5
100
AcDb2dPolyline
66
1
10
0.0
20
0.0
30
0.0
70
0
0
VERTEX
5
dd
100
AcDbEntity
8
1
100
AcDbVertex
100
AcDb2dVertex
62
5
10
930.699524
20
557.437128
0
VERTEX
5
de
100
AcDbEntity
8
1
100
AcDbVertex
100
AcDb2dVertex
62
5
10
930.699514
20
557.537128
0
VERTEX
5
df
100
AcDbEntity
8
1
100
AcDbVertex
100
AcDb2dVertex
62
5
10
930.499514
20
557.537108
0
VERTEX
5
e0
100
AcDbEntity
8
1
100
AcDbVertex
100
AcDb2dVertex
62
5
10
930.499115
20
561.537108
0
VERTEX
5
e1
100
AcDbEntity
8
1
100
AcDbVertex
100
AcDb2dVertex
62
5
10
930.699115
20
561.537128
0
VERTEX
5
e2
100
AcDbEntity
8
1
100
AcDbVertex
100
AcDb2dVertex
62
5
10
930.699115
20
561.537128
0
VERTEX
5
e3
100
AcDbEntity
8
1
100
AcDbVertex
100
AcDb2dVertex
62
5
10
930.697517
20
577.537128
0
VERTEX
5
e4
100
AcDbEntity
8
1
100
AcDbVertex
100
AcDb2dVertex
62
5
10
930.497517
20
577.537108
0
VERTEX
5
e5
100
AcDbEntity
8
1
100
AcDbVertex
100
AcDb2dVertex
62
5
10
930.497118
20
581.537108
0
VERTEX
5
e6
100
AcDbEntity
8
1
100
AcDbVertex
100
AcDb2dVertex
62
5
10
930.697118
20
581.537128
0
VERTEX
5
e7
100
AcDbEntity
8
1
100
AcDbVertex
100
AcDb2dVertex
62
5
10
930.697108
20
581.637128
0
SEQEND
5
e8
100
AcDbEntity
8
1
0
ARC
5
e9
100
AcDbEntity
8
1
100
AcDbCircle
6
CONTINUOUS
62
5
10
931.097108
20
581.637168
40
0.400000
100
AcDbArc
50
90.005720
51
-179.994278
0
LINE
5
ea
100
AcDbEntity
8
1
100
AcDbLine
6
CONTINUOUS
62
5
10
931.097068
20
582.037168
11
945.497068
21
582.038605
0
ARC
5
eb
100
AcDbEntity
8
1
100
AcDbCircle
6
CONTINUOUS
62
5
10
945.497088
20
581.838605
40
0.200000
100
AcDbArc
50
0.005720
51
90.005720
0
LINE
5
ec
100
AcDbEntity
8
1
100
AcDbLine
6
CONTINUOUS
62
5
10
945.697088
20
581.838625
11
945.697108
21
581.638625
0
POLYLINE
5
ed
100
AcDbEntity
8
1
6
CONTINUOUS
62
5
100
AcDb2dPolyline
66
1
10
0.0
20
0.0
30
0.0
70
0
0
VERTEX
5
ee
100
AcDbEntity
8
1
100
AcDbVertex
100
AcDb2dVertex
62
5
10
945.699524
20
557.438626
0
VERTEX
5
ef
100
AcDbEntity
8
1
100
AcDbVertex
100
AcDb2dVertex
62
5
10
945.699534
20
557.338626
0
VERTEX
5
f0
100
AcDbEntity
8
1
100
AcDbVertex
100
AcDb2dVertex
62
5
10
945.699534
20
557.338626
0
VERTEX
5
f1
100
AcDbEntity
8
1
100
AcDbVertex
100
AcDb2dVertex
62
5
10
945.699544
20
557.238626
0
SEQEND
5
f2
100
AcDbEntity
8
1
0
LINE
5
f3
100
AcDbEntity
8
1
100
AcDbLine
6
CONTINUOUS
62
5
10
931.299317
20
559.511898
11
945.099317
21
559.511898
0
LINE
5
f4
100
AcDbEntity
8
1
100
AcDbLine
6
CONTINUOUS
62
5
10
931.297315
20
579.562717
11
945.097315
21
579.562717
0
POLYLINE
5
f5
100
AcDbEntity
8
1
6
DOT2
62
5
100
AcDb2dPolyline
66
1
10
0.0
20
0.0
30
0.0
70
0
0
VERTEX
5
f6
100
AcDbEntity
8
1
100
AcDbVertex
100
AcDb2dVertex
62
5
10
929.296667
20
528.346662
0
VERTEX
5
f7
100
AcDbEntity
8
1
100
AcDbVertex
100
AcDb2dVertex
62
5
10
929.296667
20
528.385109
0
VERTEX
5
f8
100
AcDbEntity
8
1
100
AcDbVertex
100
AcDb2dVertex
62
5
10
929.296667
20
529.385109
0
VERTEX
5
f9
100
AcDbEntity
8
1
100
AcDbVertex
100
AcDb2dVertex
62
5
10
930.496667
20
529.385109
0
SEQEND
5
fa
100
AcDbEntity
8
1
0
LINE
5
fb
100
AcDbEntity
8
1
100
AcDbLine
6
DOT2
62
5
10
930.496667
20
529.385109
11
930.496667
21
528.346662
0
LINE
5
fc
100
AcDbEntity
8
1
100
AcDbLine
6
DOT2
62
5
10
932.496795
20
531.230236
11
932.496257
21
525.846847
0
POLYLINE
5
fd
100
AcDbEntity
8
1
6
CONTINUOUS
62
5
100
AcDb2dPolyline
66
1
10
0.0
20
0.0
30
0.0
70
1
0
VERTEX
5
fe
100
AcDbEntity
8
1
100
AcDbVertex
100
AcDb2dVertex
62
5
10
929.096449
20
515.646662
0
VERTEX
5
ff
100
AcDbEntity
8
1
100
AcDbVertex
100
AcDb2dVertex
62
5
10
929.296667
20
515.646662
0
VERTEX
5
100
100
AcDbEntity
8
1
100
AcDbVertex
100
AcDb2dVertex
62
5
10
929.296667
20
518.246662
0
VERTEX
5
101
100
AcDbEntity
8
1
100
AcDbVertex
100
AcDb2dVertex
62
5
10
929.096449
20
518.246662
0
SEQEND
5
102
100
AcDbEntity
8
1
0
POLYLINE
5
103
100
AcDbEntity
8
1
6
CONTINUOUS
62
5
100
AcDb2dPolyline
66
1
10
0.0
20
0.0
30
0.0
70
1
0
VERTEX
5
104
100
AcDbEntity
8
1
100
AcDbVertex
100
AcDb2dVertex
62
5
10
929.096449
20
523.646662
0
VERTEX
5
105
100
AcDbEntity
8
1
100
AcDbVertex
100
AcDb2dVertex
62
5
10
929.296667
20
523.646662
0
VERTEX
5
106
100
AcDbEntity
8
1
100
AcDbVertex
100
AcDb2dVertex
62
5
10
929.296667
20
526.246662
0
VERTEX
5
107
100
AcDbEntity
8
1
100
AcDbVertex
100
AcDb2dVertex
62
5
10
929.096449
20
526.246662
0
SEQEND
5
108
100
AcDbEntity
8
1
0
LINE
5
109
100
AcDbEntity
8
1
100
AcDbLine
6
CONTINUOUS
62
5
10
926.738875
20
528.560623
11
926.738875
21
526.860623
0
POLYLINE
5
10a
100
AcDbEntity
8
1
6
CONTINUOUS
62
5
100
AcDb2dPolyline
66
1
10
0.0
20
0.0
30
0.0
70
1
0
VERTEX
5
10b
100
AcDbEntity
8
1
100
AcDbVertex
100
AcDb2dVertex
62
5
10
927.696449
20
528.560623
0
VERTEX
5
10c
100
AcDbEntity
8
1
100
AcDbVertex
100
AcDb2dVertex
62
5
10
926.738875
20
528.560623
0
VERTEX
5
10d
100
AcDbEntity
8
1
100
AcDbVertex
100
AcDb2dVertex
62
5
10
926.696449
20
528.518197
0
VERTEX
5
10e
100
AcDbEntity
8
1
100
AcDbVertex
100
AcDb2dVertex
62
5
10
926.696449
20
526.903049
0
VERTEX
5
10f
100
AcDbEntity
8
1
100
AcDbVertex
100
AcDb2dVertex
62
5
10
926.738875
20
526.860623
0
VERTEX
5
110
100
AcDbEntity
8
1
100
AcDbVertex
100
AcDb2dVertex
62
5
10
927.696449
20
526.860623
0
VERTEX
5
111
100
AcDbEntity
8
1
100
AcDbVertex
100
AcDb2dVertex
62
5
10
927.696449
20
528.560623
0
SEQEND
5
112
100
AcDbEntity
8
1
0
LINE
5
113
100
AcDbEntity
8
1
100
AcDbLine
6
CONTINUOUS
62
5
10
927.953017
20
517.946662
11
927.953017
21
515.946662
0
POLYLINE
5
114
100
AcDbEntity
8
1
6
CONTINUOUS
62
5
100
AcDb2dPolyline
66
1
10
0.0
20
0.0
30
0.0
70
1
0
VERTEX
5
115
100
AcDbEntity
8
1
100
AcDbVertex
100
AcDb2dVertex
62
5
10
929.096449
20
517.946662
0
VERTEX
5
116
100
AcDbEntity
8
1
100
AcDbVertex
100
AcDb2dVertex
62
5
10
927.953017
20
517.946662
0
VERTEX
5
117
100
AcDbEntity
8
1
100
AcDbVertex
100
AcDb2dVertex
62
5
10
927.896449
20
517.890093
0
VERTEX
5
118
100
AcDbEntity
8
1
100
AcDbVertex
100
AcDb2dVertex
62
5
10
927.896449
20
516.003231
0
VERTEX
5
119
100
AcDbEntity
8
1
100
AcDbVertex
100
AcDb2dVertex
62
5
10
927.953017
20
515.946662
0
VERTEX
5
11a
100
AcDbEntity
8
1
100
AcDbVertex
100
AcDb2dVertex
62
5
10
929.096449
20
515.946662
0
VERTEX
5
11b
100
AcDbEntity
8
1
100
AcDbVertex
100
AcDb2dVertex
62
5
10
929.096449
20
517.946662
0
SEQEND
5
11c
100
AcDbEntity
8
1
0
LINE
5
11d
100
AcDbEntity
8
1
100
AcDbLine
6
CONTINUOUS
62
5
10
927.953017
20
525.946662
11
927.953017
21
523.946662
0
POLYLINE
5
11e
100
AcDbEntity
8
1
6
CONTINUOUS
62
5
100
AcDb2dPolyline
66
1
10
0.0
20
0.0
30
0.0
70
1
0
VERTEX
5
11f
100
AcDbEntity
8
1
100
AcDbVertex
100
AcDb2dVertex
62
5
10
929.096449
20
525.946662
0
VERTEX
5
120
100
AcDbEntity
8
1
100
AcDbVertex
100
AcDb2dVertex
62
5
10
927.953017
20
525.946662
0
VERTEX
5
121
100
AcDbEntity
8
1
100
AcDbVertex
100
AcDb2dVertex
62
5
10
927.896449
20
525.890093
0
VERTEX
5
122
100
AcDbEntity
8
1
100
AcDbVertex
100
AcDb2dVertex
62
5
10
927.896449
20
524.003231
0
VERTEX
5
123
100
AcDbEntity
8
1
100
AcDbVertex
100
AcDb2dVertex
62
5
10
927.953017
20
523.946662
0
VERTEX
5
124
100
AcDbEntity
8
1
100
AcDbVertex
100
AcDb2dVertex
62
5
10
929.096449
20
523.946662
0
VERTEX
5
125
100
AcDbEntity
8
1
100
AcDbVertex
100
AcDb2dVertex
62
5
10
929.096449
20
525.946662
0
SEQEND
5
126
100
AcDbEntity
8
1
0
LINE
5
127
100
AcDbEntity
8
1
100
AcDbLine
6
CONTINUOUS
62
5
10
931.096667
20
526.946662
11
945.296667
21
526.946662
0
LINE
5
128
100
AcDbEntity
8
1
100
AcDbLine
6
DOT2
62
5
10
902.696446
20
584.630769
11
902.696446
21
579.583540
0
ARC
5
129
100
AcDbEntity
8
1
100
AcDbCircle
6
HIDDEN
62
5
10
902.696449
20
581.037364
40
1.300056
100
AcDbArc
50
179.467634
51
0.532466
0
LINE
5
12a
100
AcDbEntity
8
1
100
AcDbLine
6
HIDDEN
62
5
10
901.396449
20
581.049443
11
901.396449
21
582.037308
0
LINE
5
12b
100
AcDbEntity
8
1
100
AcDbLine
6
HIDDEN
62
5
10
903.996449
20
582.037308
11
903.996449
21
581.049445
0
LINE
5
12c
100
AcDbEntity
8
1
100
AcDbLine
6
CONTINUOUS
62
5
10
899.586392
20
582.037308
11
899.696449
21
584.137308
0
LINE
5
12d
100
AcDbEntity
8
1
100
AcDbLine
6
CONTINUOUS
62
5
10
908.696449
20
584.137308
11
908.806505
21
582.037308
0
POLYLINE
5
12e
100
AcDbEntity
8
1
6
HIDDEN
62
5
100
AcDb2dPolyline
66
1
10
0.0
20
0.0
30
0.0
70
0
0
VERTEX
5
12f
100
AcDbEntity
8
1
100
AcDbVertex
100
AcDb2dVertex
62
5
10
899.696449
20
584.137308
0
VERTEX
5
130
100
AcDbEntity
8
1
100
AcDbVertex
100
AcDb2dVertex
62
5
10
899.429169
20
579.037308
0
VERTEX
5
131
100
AcDbEntity
8
1
100
AcDbVertex
100
AcDb2dVertex
62
5
10
908.963728
20
579.037308
0
VERTEX
5
132
100
AcDbEntity
8
1
100
AcDbVertex
100
AcDb2dVertex
62
5
10
908.696449
20
584.137308
0
SEQEND
5
133
100
AcDbEntity
8
1
0
LINE
5
134
100
AcDbEntity
8
1
100
AcDbLine
6
DOT2
62
5
10
902.696446
20
554.443846
11
902.696446
21
559.491075
0
ARC
5
135
100
AcDbEntity
8
1
100
AcDbCircle
6
HIDDEN
62
5
10
902.696446
20
558.037251
40
1.300056
100
AcDbArc
50
-0.532466
51
-179.467634
0
LINE
5
136
100
AcDbEntity
8
1
100
AcDbLine
6
HIDDEN
62
5
10
901.396446
20
558.025172
11
901.396446
21
557.037308
0
LINE
5
137
100
AcDbEntity
8
1
100
AcDbLine
6
HIDDEN
62
5
10
903.996446
20
557.037308
11
903.996446
21
558.025170
0
POLYLINE
5
138
100
AcDbEntity
8
1
6
HIDDEN
62
5
100
AcDb2dPolyline
66
1
10
0.0
20
0.0
30
0.0
70
0
0
VERTEX
5
139
100
AcDbEntity
8
1
100
AcDbVertex
100
AcDb2dVertex
62
5
10
899.696446
20
554.937308
0
VERTEX
5
13a
100
AcDbEntity
8
1
100
AcDbVertex
100
AcDb2dVertex
62
5
10
899.429166
20
560.037308
0
VERTEX
5
13b
100
AcDbEntity
8
1
100
AcDbVertex
100
AcDb2dVertex
62
5
10
908.963728
20
560.037308
0
VERTEX
5
13c
100
AcDbEntity
8
1
100
AcDbVertex
100
AcDb2dVertex
62
5
10
908.696449
20
554.937308
0
SEQEND
5
13d
100
AcDbEntity
8
1
0
LINE
5
13e
100
AcDbEntity
8
1
100
AcDbLine
6
CONTINUOUS
62
5
10
899.586390
20
557.037308
11
899.696446
21
554.937308
0
LINE
5
13f
100
AcDbEntity
8
1
100
AcDbLine
6
CONTINUOUS
62
5
10
908.696449
20
554.937308
11
908.806505
21
557.037308
0
LINE
5
140
100
AcDbEntity
8
1
100
AcDbLine
6
CONTINUOUS
62
5
10
896.596667
20
577.137308
11
896.596667
21
561.937308
0
LINE
5
141
100
AcDbEntity
8
1
100
AcDbLine
6
CONTINUOUS
62
5
10
898.196667
20
577.137308
11
898.196667
21
561.937308
0
CIRCLE
5
142
100
AcDbEntity
8
1
100
AcDbCircle
6
DOT2
62
5
10
882.696449
20
569.537308
40
0.800000
0
CIRCLE
5
143
100
AcDbEntity
8
1
100
AcDbCircle
6
CONTINUOUS
62
5
10
882.696449
20
569.537308
40
0.640000
0
LINE
5
144
100
AcDbEntity
8
1
100
AcDbLine
6
CONTINUOUS
62
5
10
882.695372
20
557.037479
11
882.696449
21
557.037308
0
LINE
5
145
100
AcDbEntity
8
1
100
AcDbLine
6
CONTINUOUS
62
5
10
880.696449
20
577.937308
11
880.696449
21
561.137308
0
LINE
5
146
100
AcDbEntity
8
1
100
AcDbLine
6
CONTINUOUS
62
5
10
927.696449
20
528.546662
11
891.896667
21
528.546662
0
LINE
5
147
100
AcDbEntity
8
1
100
AcDbLine
6
CONTINUOUS
62
5
10
927.696449
20
526.410623
11
891.896667
21
526.410623
0
LINE
5
148
100
AcDbEntity
8
1
100
AcDbLine
6
CONTINUOUS
62
5
10
927.696449
20
526.010623
11
891.896667
21
526.010623
0
LINE
5
149
100
AcDbEntity
8
1
100
AcDbLine
6
CONTINUOUS
62
5
10
927.696449
20
516.682701
11
891.896667
21
516.682701
0
LINE
5
14a
100
AcDbEntity
8
1
100
AcDbLine
6
CONTINUOUS
62
5
10
927.696449
20
516.282701
11
891.896667
21
516.282701
0
LINE
5
14b
100
AcDbEntity
8
1
100
AcDbLine
6
CONTINUOUS
62
5
10
927.696449
20
576.737308
11
891.896667
21
576.737308
0
LINE
5
14c
100
AcDbEntity
8
1
100
AcDbLine
6
CONTINUOUS
62
5
10
927.696449
20
574.601269
11
891.896667
21
574.601269
0
LINE
5
14d
100
AcDbEntity
8
1
100
AcDbLine
6
CONTINUOUS
62
5
10
927.696449
20
574.201269
11
891.896667
21
574.201269
0
LINE
5
14e
100
AcDbEntity
8
1
100
AcDbLine
6
CONTINUOUS
62
5
10
927.696449
20
564.873347
11
891.896667
21
564.873347
0
LINE
5
14f
100
AcDbEntity
8
1
100
AcDbLine
6
CONTINUOUS
62
5
10
927.696449
20
564.473347
11
891.896667
21
564.473347
0
LINE
5
150
100
AcDbEntity
8
1
100
AcDbLine
6
CONTINUOUS
62
5
10
927.696449
20
562.337308
11
891.896667
21
562.337308
0
POLYLINE
5
151
100
AcDbEntity
8
1
6
CONTINUOUS
62
5
100
AcDb2dPolyline
66
1
10
0.0
20
0.0
30
0.0
70
0
0
VERTEX
5
152
100
AcDbEntity
8
1
100
AcDbVertex
100
AcDb2dVertex
62
5
10
927.696449
20
577.137308
0
VERTEX
5
153
100
AcDbEntity
8
1
100
AcDbVertex
100
AcDb2dVertex
62
5
10
891.896667
20
577.137308
0
VERTEX
5
154
100
AcDbEntity
8
1
100
AcDbVertex
100
AcDb2dVertex
62
5
10
891.896667
20
561.937308
0
VERTEX
5
155
100
AcDbEntity
8
1
100
AcDbVertex
100
AcDb2dVertex
62
5
10
927.696449
20
561.937308
0
SEQEND
5
156
100
AcDbEntity
8
1
0
ARC
5
157
100
AcDbEntity
8
1
100
AcDbCircle
6
CONTINUOUS
62
5
10
883.096449
20
571.086501
40
0.400000
100
AcDbArc
50
179.999998
51
-104.477511
0
ARC
5
158
100
AcDbEntity
8
1
100
AcDbCircle
6
CONTINUOUS
62
5
10
882.696449
20
569.537308
40
1.200000
100
AcDbArc
50
-75.522487
51
75.522487
0
ARC
5
159
100
AcDbEntity
8
1
100
AcDbCircle
6
CONTINUOUS
62
5
10
883.096449
20
567.988114
40
0.400000
100
AcDbArc
50
104.477511
51
179.999998
0
POLYLINE
5
15a
100
AcDbEntity
8
1
6
CONTINUOUS
62
5
100
AcDb2dPolyline
66
1
10
0.0
20
0.0
30
0.0
70
0
0
VERTEX
5
15b
100
AcDbEntity
8
1
100
AcDbVertex
100
AcDb2dVertex
62
5
10
882.696449
20
567.988114
0
VERTEX
5
15c
100
AcDbEntity
8
1
100
AcDbVertex
100
AcDb2dVertex
62
5
10
882.696449
20
556.837308
0
VERTEX
5
15d
100
AcDbEntity
8
1
100
AcDbVertex
100
AcDb2dVertex
62
5
10
927.696463
20
556.837308
0
VERTEX
5
15e
100
AcDbEntity
8
1
100
AcDbVertex
100
AcDb2dVertex
62
5
10
927.696463
20
582.237308
0
VERTEX
5
15f
100
AcDbEntity
8
1
100
AcDbVertex
100
AcDb2dVertex
62
5
10
882.696449
20
582.237308
0
VERTEX
5
160
100
AcDbEntity
8
1
100
AcDbVertex
100
AcDb2dVertex
62
5
10
882.696449
20
582.237308
0
VERTEX
5
161
100
AcDbEntity
8
1
100
AcDbVertex
100
AcDb2dVertex
62
5
10
882.696449
20
571.086501
0
SEQEND
5
162
100
AcDbEntity
8
1
0
LINE
5
163
100
AcDbEntity
8
1
100
AcDbLine
6
DASHED
62
5
10
882.695345
20
557.037308
11
927.696463
21
557.037308
0
LINE
5
164
100
AcDbEntity
8
1
100
AcDbLine
6
CONTINUOUS
62
5
10
883.096702
20
560.537308
11
927.297336
21
560.537308
0
LINE
5
165
100
AcDbEntity
8
1
100
AcDbLine
6
CONTINUOUS
62
5
10
883.096702
20
578.537308
11
927.297336
21
578.537308
0
LINE
5
166
100
AcDbEntity
8
1
100
AcDbLine
6
DOT2
62
5
10
879.876969
20
569.537308
11
929.696463
21
569.537308
0
LINE
5
167
100
AcDbEntity
8
1
100
AcDbLine
6
DOT2
62
5
10
938.060496
20
521.346662
11
890.973005
21
521.346662
0
LINE
5
168
100
AcDbEntity
8
1
100
AcDbLine
6
DOT2
62
5
10
946.756625
20
569.537308
11
892.472787
21
569.537308
0
LINE
5
169
100
AcDbEntity
8
1
100
AcDbLine
6
DOT2
62
5
10
948.886639
20
495.646662
11
947.556667
21
495.646662
0
LINE
5
16a
100
AcDbEntity
8
1
100
AcDbLine
6
CONTINUOUS
62
5
10
945.697044
20
485.146662
11
945.696667
21
485.146662
0
LINE
5
16b
100
AcDbEntity
8
1
100
AcDbLine
6
DOT2
62
5
10
948.886639
20
490.246662
11
947.556667
21
490.246662
0
LINE
5
16c
100
AcDbEntity
8
1
100
AcDbLine
6
CONTINUOUS
62
5
10
947.356667
20
490.146662
11
947.356667
21
495.746662
0
LINE
5
16d
100
AcDbEntity
8
1
100
AcDbLine
6
CONTINUOUS
62
5
10
946.456667
20
489.946662
11
946.456667
21
495.946662
0
POLYLINE
5
16e
100
AcDbEntity
8
1
6
CONTINUOUS
62
5
100
AcDb2dPolyline
66
1
10
0.0
20
0.0
30
0.0
70
1
0
VERTEX
5
16f
100
AcDbEntity
8
1
100
AcDbVertex
100
AcDb2dVertex
62
5
10
947.156667
20
495.946662
0
VERTEX
5
170
100
AcDbEntity
8
1
100
AcDbVertex
100
AcDb2dVertex
62
5
10
946.456667
20
495.946662
0
VERTEX
5
171
100
AcDbEntity
8
1
100
AcDbVertex
100
AcDb2dVertex
62
5
10
946.456667
20
489.946662
0
VERTEX
5
172
100
AcDbEntity
8
1
100
AcDbVertex
100
AcDb2dVertex
62
5
10
947.156667
20
489.946662
0
VERTEX
5
173
100
AcDbEntity
8
1
100
AcDbVertex
100
AcDb2dVertex
62
5
10
947.156667
20
495.946662
0
SEQEND
5
174
100
AcDbEntity
8
1
0
LINE
5
175
100
AcDbEntity
8
1
100
AcDbLine
6
CONTINUOUS
62
5
10
947.156667
20
495.946662
11
947.156667
21
489.946662
0
LINE
5
176
100
AcDbEntity
8
1
100
AcDbLine
6
CONTINUOUS
62
5
10
945.696125
20
494.346662
11
945.695748
21
494.346662
0
POLYLINE
5
177
100
AcDbEntity
8
1
6
CONTINUOUS
62
5
100
AcDb2dPolyline
66
1
10
0.0
20
0.0
30
0.0
70
0
0
VERTEX
5
178
100
AcDbEntity
8
1
100
AcDbVertex
100
AcDb2dVertex
62
5
10
945.696966
20
489.946662
0
VERTEX
5
179
100
AcDbEntity
8
1
100
AcDbVertex
100
AcDb2dVertex
62
5
10
947.156667
20
489.946662
0
VERTEX
5
17a
100
AcDbEntity
8
1
100
AcDbVertex
100
AcDb2dVertex
62
5
10
947.356667
20
490.146662
0
VERTEX
5
17b
100
AcDbEntity
8
1
100
AcDbVertex
100
AcDb2dVertex
62
5
10
947.556667
20
490.146662
0
VERTEX
5
17c
100
AcDbEntity
8
1
100
AcDbVertex
100
AcDb2dVertex
62
5
10
947.556667
20
495.746662
0
VERTEX
5
17d
100
AcDbEntity
8
1
100
AcDbVertex
100
AcDb2dVertex
62
5
10
947.356667
20
495.746662
0
VERTEX
5
17e
100
AcDbEntity
8
1
100
AcDbVertex
100
AcDb2dVertex
62
5
10
947.156667
20
495.946662
0
VERTEX
5
17f
100
AcDbEntity
8
1
100
AcDbVertex
100
AcDb2dVertex
62
5
10
945.696966
20
495.946662
0
SEQEND
5
180
100
AcDbEntity
8
1
0
LINE
5
181
100
AcDbEntity
8
1
100
AcDbLine
6
CONTINUOUS
62
5
10
948.886639
20
495.646662
11
948.886639
21
490.246662
0
LINE
5
182
100
AcDbEntity
8
1
100
AcDbLine
6
CONTINUOUS
62
5
10
948.726639
20
495.806662
11
948.726639
21
490.086662
0
POLYLINE
5
183
100
AcDbEntity
8
1
6
CONTINUOUS
62
5
100
AcDb2dPolyline
66
1
10
0.0
20
0.0
30
0.0
70
0
0
VERTEX
5
184
100
AcDbEntity
8
1
100
AcDbVertex
100
AcDb2dVertex
62
5
10
947.296667
20
495.806662
0
VERTEX
5
185
100
AcDbEntity
8
1
100
AcDbVertex
100
AcDb2dVertex
62
5
10
948.726639
20
495.806662
0
VERTEX
5
186
100
AcDbEntity
8
1
100
AcDbVertex
100
AcDb2dVertex
62
5
10
948.886639
20
495.646662
0
VERTEX
5
187
100
AcDbEntity
8
1
100
AcDbVertex
100
AcDb2dVertex
62
5
10
949.206639
20
495.646662
0
VERTEX
5
188
100
AcDbEntity
8
1
100
AcDbVertex
100
AcDb2dVertex
62
5
10
949.206639
20
492.946662
0
VERTEX
5
189
100
AcDbEntity
8
1
100
AcDbVertex
100
AcDb2dVertex
62
5
10
949.206639
20
490.246662
0
VERTEX
5
18a
100
AcDbEntity
8
1
100
AcDbVertex
100
AcDb2dVertex
62
5
10
948.886639
20
490.246662
0
VERTEX
5
18b
100
AcDbEntity
8
1
100
AcDbVertex
100
AcDb2dVertex
62
5
10
948.726639
20
490.086662
0
VERTEX
5
18c
100
AcDbEntity
8
1
100
AcDbVertex
100
AcDb2dVertex
62
5
10
947.296667
20
490.086662
0
SEQEND
5
18d
100
AcDbEntity
8
1
0
CIRCLE
5
18e
100
AcDbEntity
8
1
100
AcDbCircle
6
DOT2
62
5
10
925.696667
20
495.946662
40
0.800000
0
CIRCLE
5
18f
100
AcDbEntity
8
1
100
AcDbCircle
6
CONTINUOUS
62
5
10
925.696667
20
495.946662
40
0.640000
0
ARC
5
190
100
AcDbEntity
8
1
100
AcDbCircle
6
CONTINUOUS
62
5
10
929.696667
20
507.946662
40
1.000000
100
AcDbArc
50
-89.999999
51
0.000000
0
LINE
5
191
100
AcDbEntity
8
1
100
AcDbLine
6
CONTINUOUS
62
5
10
930.696667
20
507.946662
11
930.696667
21
511.446662
0
LINE
5
192
100
AcDbEntity
8
1
100
AcDbLine
6
CONTINUOUS
62
5
10
928.096667
20
506.000166
11
928.096667
21
506.846662
0
ARC
5
193
100
AcDbEntity
8
1
100
AcDbCircle
6
CONTINUOUS
62
5
10
928.196667
20
506.846662
40
0.100000
100
AcDbArc
50
89.999999
51
179.999998
0
LINE
5
194
100
AcDbEntity
8
1
100
AcDbLine
6
CONTINUOUS
62
5
10
928.196667
20
506.946662
11
929.696667
21
506.946662
0
POLYLINE
5
195
100
AcDbEntity
8
1
6
CONTINUOUS
62
5
100
AcDb2dPolyline
66
1
10
0.0
20
0.0
30
0.0
70
0
0
VERTEX
5
196
100
AcDbEntity
8
1
100
AcDbVertex
100
AcDb2dVertex
62
5
10
916.696667
20
479.946662
0
VERTEX
5
197
100
AcDbEntity
8
1
100
AcDbVertex
100
AcDb2dVertex
62
5
10
916.696667
20
482.346662
0
VERTEX
5
198
100
AcDbEntity
8
1
100
AcDbVertex
100
AcDb2dVertex
62
5
10
917.168337
20
482.346662
0
SEQEND
5
199
100
AcDbEntity
8
1
0
LINE
5
19a
100
AcDbEntity
8
1
100
AcDbLine
6
CONTINUOUS
62
5
10
928.096667
20
510.242320
11
928.096667
21
482.546662
0
POLYLINE
5
19b
100
AcDbEntity
8
0
6
DIVIDE
62
5
100
AcDb2dPolyline
66
1
10
0.0
20
0.0
30
0.0
70
1
0
VERTEX
5
19c
100
AcDbEntity
8
0
100
AcDbVertex
100
AcDb2dVertex
62
5
10
938.296667
20
494.946662
0
VERTEX
5
19d
100
AcDbEntity
8
0
100
AcDbVertex
100
AcDb2dVertex
62
5
10
938.296667
20
494.946662
0
VERTEX
5
19e
100
AcDbEntity
8
0
100
AcDbVertex
100
AcDb2dVertex
62
5
10
938.296667
20
494.946662
0
SEQEND
5
19f
100
AcDbEntity
8
0
0
LINE
5
1a0
100
AcDbEntity
8
1
100
AcDbLine
6
CONTINUOUS
62
5
10
928.496667
20
486.318332
11
945.296667
21
486.318332
0
LINE
5
1a1
100
AcDbEntity
8
1
100
AcDbLine
6
CONTINUOUS
62
5
10
910.996449
20
511.946662
11
904.996449
21
511.946662
0
POLYLINE
5
1a2
100
AcDbEntity
8
1
6
CONTINUOUS
62
5
100
AcDb2dPolyline
66
1
10
0.0
20
0.0
30
0.0
70
0
0
VERTEX
5
1a3
100
AcDbEntity
8
1
100
AcDbVertex
100
AcDb2dVertex
62
5
10
910.996449
20
513.746662
0
VERTEX
5
1a4
100
AcDbEntity
8
1
100
AcDbVertex
100
AcDb2dVertex
62
5
10
910.996449
20
511.346662
0
VERTEX
5
1a5
100
AcDbEntity
8
1
100
AcDbVertex
100
AcDb2dVertex
62
5
10
906.035679
20
511.346662
0
VERTEX
5
1a6
100
AcDbEntity
8
1
100
AcDbVertex
100
AcDb2dVertex
62
5
10
904.996449
20
511.946662
0
VERTEX
5
1a7
100
AcDbEntity
8
1
100
AcDbVertex
100
AcDb2dVertex
62
5
10
904.996449
20
513.746662
0
SEQEND
5
1a8
100
AcDbEntity
8
1
0
LINE
5
1a9
100
AcDbEntity
8
1
100
AcDbLine
6
CONTINUOUS
62
5
10
895.596667
20
511.946662
11
891.896667
21
511.946662
0
POLYLINE
5
1aa
100
AcDbEntity
8
1
6
CONTINUOUS
62
5
100
AcDb2dPolyline
66
1
10
0.0
20
0.0
30
0.0
70
0
0
VERTEX
5
1ab
100
AcDbEntity
8
1
100
AcDbVertex
100
AcDb2dVertex
62
5
10
895.596667
20
513.746662
0
VERTEX
5
1ac
100
AcDbEntity
8
1
100
AcDbVertex
100
AcDb2dVertex
62
5
10
895.596667
20
511.346662
0
VERTEX
5
1ad
100
AcDbEntity
8
1
100
AcDbVertex
100
AcDb2dVertex
62
5
10
892.935897
20
511.346662
0
VERTEX
5
1ae
100
AcDbEntity
8
1
100
AcDbVertex
100
AcDb2dVertex
62
5
10
891.896667
20
511.946662
0
VERTEX
5
1af
100
AcDbEntity
8
1
100
AcDbVertex
100
AcDb2dVertex
62
5
10
891.896667
20
513.746662
0
SEQEND
5
1b0
100
AcDbEntity
8
1
0
POLYLINE
5
1b1
100
AcDbEntity
8
1
6
CONTINUOUS
62
5
100
AcDb2dPolyline
66
1
10
0.0
20
0.0
30
0.0
70
1
0
VERTEX
5
1b2
100
AcDbEntity
8
1
100
AcDbVertex
100
AcDb2dVertex
62
5
10
898.695987
20
498.946662
0
VERTEX
5
1b3
100
AcDbEntity
8
1
100
AcDbVertex
100
AcDb2dVertex
62
5
10
898.695987
20
498.946662
0
VERTEX
5
1b4
100
AcDbEntity
8
1
100
AcDbVertex
100
AcDb2dVertex
62
5
10
898.695987
20
498.946662
0
SEQEND
5
1b5
100
AcDbEntity
8
1
0
LINE
5
1b6
100
AcDbEntity
8
1
100
AcDbLine
6
CONTINUOUS
62
5
10
904.996449
20
512.076662
11
895.596667
21
512.076662
0
LINE
5
1b7
100
AcDbEntity
8
1
100
AcDbLine
6
CONTINUOUS
62
5
10
895.596667
20
513.016662
11
904.996449
21
513.016662
0
LINE
5
1b8
100
AcDbEntity
8
1
100
AcDbLine
6
CONTINUOUS
62
5
10
908.696667
20
483.946662
11
908.696667
21
479.946662
0
POLYLINE
5
1b9
100
AcDbEntity
8
1
6
CONTINUOUS
62
5
100
AcDb2dPolyline
66
1
10
0.0
20
0.0
30
0.0
70
0
0
VERTEX
5
1ba
100
AcDbEntity
8
1
100
AcDbVertex
100
AcDb2dVertex
62
5
10
911.351764
20
482.946662
0
VERTEX
5
1bb
100
AcDbEntity
8
1
100
AcDbVertex
100
AcDb2dVertex
62
5
10
911.351764
20
479.946662
0
VERTEX
5
1bc
100
AcDbEntity
8
1
100
AcDbVertex
100
AcDb2dVertex
62
5
10
910.696667
20
479.946662
0
SEQEND
5
1bd
100
AcDbEntity
8
1
0
LINE
5
1be
100
AcDbEntity
8
1
100
AcDbLine
6
DOT2
62
5
10
902.696449
20
484.946662
11
902.696449
21
478.946662
0
LINE
5
1bf
100
AcDbEntity
8
1
100
AcDbLine
6
CONTINUOUS
62
5
10
901.396449
20
483.946662
11
901.396449
21
479.946662
0
LINE
5
1c0
100
AcDbEntity
8
1
100
AcDbLine
6
CONTINUOUS
62
5
10
903.996449
20
479.946662
11
903.996449
21
483.946662
0
LINE
5
1c1
100
AcDbEntity
8
1
100
AcDbLine
6
CONTINUOUS
62
5
10
880.696667
20
506.946662
11
882.696667
21
506.946662
0
LINE
5
1c2
100
AcDbEntity
8
1
100
AcDbLine
6
CONTINUOUS
62
5
10
882.696667
20
506.946662
11
882.696667
21
494.410764
0
CIRCLE
5
1c3
100
AcDbEntity
8
1
100
AcDbCircle
6
CONTINUOUS
62
5
10
881.196667
20
494.946662
40
1.200000
0
CIRCLE
5
1c4
100
AcDbEntity
8
1
100
AcDbCircle
6
CONTINUOUS
62
5
10
881.196667
20
494.946662
40
1.050000
0
LINE
5
1c5
100
AcDbEntity
8
1
100
AcDbLine
6
CONTINUOUS
62
5
10
881.635073
20
495.385068
11
880.758261
21
494.508256
0
LINE
5
1c6
100
AcDbEntity
8
1
100
AcDbLine
6
CONTINUOUS
62
5
10
881.635073
20
494.508256
11
880.758261
21
495.385068
0
LINE
5
1c7
100
AcDbEntity
8
1
100
AcDbLine
6
CONTINUOUS
62
5
10
869.696449
20
482.946662
11
869.696449
21
479.946662
0
LINE
5
1c8
100
AcDbEntity
8
1
100
AcDbLine
6
CONTINUOUS
62
5
10
897.696449
20
479.946662
11
897.696449
21
482.946662
0
LINE
5
1c9
100
AcDbEntity
8
1
100
AcDbLine
6
CONTINUOUS
62
5
10
883.096169
20
507.029505
11
927.296804
21
507.029505
0
ARC
5
1ca
100
AcDbEntity
8
1
100
AcDbCircle
6
CONTINUOUS
62
5
10
927.295931
20
498.346662
40
0.400000
100
AcDbArc
50
-89.999999
51
0.000000
0
POLYLINE
5
1cb
100
AcDbEntity
8
1
6
CONTINUOUS
62
5
100
AcDb2dPolyline
66
1
10
0.0
20
0.0
30
0.0
70
0
0
VERTEX
5
1cc
100
AcDbEntity
8
1
100
AcDbVertex
100
AcDb2dVertex
62
5
10
927.695931
20
498.346662
0
VERTEX
5
1cd
100
AcDbEntity
8
1
100
AcDbVertex
100
AcDb2dVertex
62
5
10
927.695931
20
510.646662
0
VERTEX
5
1ce
100
AcDbEntity
8
1
100
AcDbVertex
100
AcDb2dVertex
62
5
10
882.695917
20
510.646662
0
VERTEX
5
1cf
100
AcDbEntity
8
1
100
AcDbVertex
100
AcDb2dVertex
62
5
10
882.696664
20
499.946522
0
SEQEND
5
1d0
100
AcDbEntity
8
1
0
ARC
5
1d1
100
AcDbEntity
8
1
100
AcDbCircle
6
CONTINUOUS
62
5
10
884.696664
20
499.946662
40
2.000000
100
AcDbArc
50
-179.995995
51
-89.999999
0
LINE
5
1d2
100
AcDbEntity
8
1
100
AcDbLine
6
CONTINUOUS
62
5
10
884.696664
20
497.946662
11
927.295931
21
497.946662
0
LINE
5
1d3
100
AcDbEntity
8
1
100
AcDbLine
6
CONTINUOUS
62
5
10
930.696667
20
511.796662
11
910.996449
21
511.796662
0
LINE
5
1d4
100
AcDbEntity
8
1
100
AcDbLine
6
CONTINUOUS
62
5
10
910.996449
20
513.296662
11
930.696667
21
513.296662
0
POLYLINE
5
1d5
100
AcDbEntity
8
1
6
CONTINUOUS
62
5
100
AcDb2dPolyline
66
1
10
0.0
20
0.0
30
0.0
70
1
0
VERTEX
5
1d6
100
AcDbEntity
8
1
100
AcDbVertex
100
AcDb2dVertex
62
5
10
929.296449
20
513.746662
0
VERTEX
5
1d7
100
AcDbEntity
8
1
100
AcDbVertex
100
AcDb2dVertex
62
5
10
927.696449
20
513.746662
0
VERTEX
5
1d8
100
AcDbEntity
8
1
100
AcDbVertex
100
AcDb2dVertex
62
5
10
927.696449
20
528.946662
0
VERTEX
5
1d9
100
AcDbEntity
8
1
100
AcDbVertex
100
AcDb2dVertex
62
5
10
929.296449
20
528.946662
0
SEQEND
5
1da
100
AcDbEntity
8
1
0
LINE
5
1db
100
AcDbEntity
8
1
100
AcDbLine
6
CONTINUOUS
62
5
10
926.738875
20
515.832701
11
926.738875
21
514.132701
0
POLYLINE
5
1dc
100
AcDbEntity
8
1
6
CONTINUOUS
62
5
100
AcDb2dPolyline
66
1
10
0.0
20
0.0
30
0.0
70
1
0
VERTEX
5
1dd
100
AcDbEntity
8
1
100
AcDbVertex
100
AcDb2dVertex
62
5
10
927.696449
20
515.832701
0
VERTEX
5
1de
100
AcDbEntity
8
1
100
AcDbVertex
100
AcDb2dVertex
62
5
10
926.738875
20
515.832701
0
VERTEX
5
1df
100
AcDbEntity
8
1
100
AcDbVertex
100
AcDb2dVertex
62
5
10
926.696449
20
515.790275
0
VERTEX
5
1e0
100
AcDbEntity
8
1
100
AcDbVertex
100
AcDb2dVertex
62
5
10
926.696449
20
514.175127
0
VERTEX
5
1e1
100
AcDbEntity
8
1
100
AcDbVertex
100
AcDb2dVertex
62
5
10
926.738875
20
514.132701
0
VERTEX
5
1e2
100
AcDbEntity
8
1
100
AcDbVertex
100
AcDb2dVertex
62
5
10
927.696449
20
514.132701
0
VERTEX
5
1e3
100
AcDbEntity
8
1
100
AcDbVertex
100
AcDb2dVertex
62
5
10
927.696449
20
515.832701
0
SEQEND
5
1e4
100
AcDbEntity
8
1
0
POLYLINE
5
1e5
100
AcDbEntity
8
1
6
CONTINUOUS
62
5
100
AcDb2dPolyline
66
1
10
0.0
20
0.0
30
0.0
70
0
0
VERTEX
5
1e6
100
AcDbEntity
8
1
100
AcDbVertex
100
AcDb2dVertex
62
5
10
930.696667
20
527.946662
0
VERTEX
5
1e7
100
AcDbEntity
8
1
100
AcDbVertex
100
AcDb2dVertex
62
5
10
930.496667
20
527.946662
0
VERTEX
5
1e8
100
AcDbEntity
8
1
100
AcDbVertex
100
AcDb2dVertex
62
5
10
930.496667
20
513.946662
0
VERTEX
5
1e9
100
AcDbEntity
8
1
100
AcDbVertex
100
AcDb2dVertex
62
5
10
930.696667
20
513.946662
0
SEQEND
5
1ea
100
AcDbEntity
8
1
0
LINE
5
1eb
100
AcDbEntity
8
1
100
AcDbLine
6
DOT2
62
5
10
930.496667
20
527.946662
11
930.696667
21
511.610280
0
POLYLINE
5
1ec
100
AcDbEntity
8
1
6
CONTINUOUS
62
5
100
AcDb2dPolyline
66
1
10
0.0
20
0.0
30
0.0
70
1
0
VERTEX
5
1ed
100
AcDbEntity
8
1
100
AcDbVertex
100
AcDb2dVertex
62
5
10
929.296667
20
528.385109
0
VERTEX
5
1ee
100
AcDbEntity
8
1
100
AcDbVertex
100
AcDb2dVertex
62
5
10
929.296667
20
529.385109
0
VERTEX
5
1ef
100
AcDbEntity
8
1
100
AcDbVertex
100
AcDb2dVertex
62
5
10
930.496667
20
529.385109
0
VERTEX
5
1f0
100
AcDbEntity
8
1
100
AcDbVertex
100
AcDb2dVertex
62
5
10
930.496667
20
528.346662
0
VERTEX
5
1f1
100
AcDbEntity
8
1
100
AcDbVertex
100
AcDb2dVertex
62
5
10
930.496667
20
513.385109
0
VERTEX
5
1f2
100
AcDbEntity
8
1
100
AcDbVertex
100
AcDb2dVertex
62
5
10
929.296667
20
513.385109
0
SEQEND
5
1f3
100
AcDbEntity
8
1
0
ARC
5
1f4
100
AcDbEntity
8
1
100
AcDbCircle
6
CONTINUOUS
62
5
10
945.296667
20
529.546662
40
0.400000
100
AcDbArc
50
0.000000
51
89.999999
0
LINE
5
1f5
100
AcDbEntity
8
1
100
AcDbLine
6
CONTINUOUS
62
5
10
945.696667
20
529.546662
11
945.696667
21
482.746662
0
ARC
5
1f6
100
AcDbEntity
8
1
100
AcDbCircle
6
CONTINUOUS
62
5
10
945.296667
20
482.746662
40
0.400000
100
AcDbArc
50
-89.999999
51
0.000000
0
LINE
5
1f7
100
AcDbEntity
8
1
100
AcDbLine
6
CONTINUOUS
62
5
10
945.296667
20
482.346662
11
928.196667
21
482.346662
0
ARC
5
1f8
100
AcDbEntity
8
1
100
AcDbCircle
6
CONTINUOUS
62
5
10
928.196667
20
482.446662
40
0.100000
100
AcDbArc
50
179.999998
51
-89.999999
0
POLYLINE
5
1f9
100
AcDbEntity
8
1
6
CONTINUOUS
62
5
100
AcDb2dPolyline
66
1
10
0.0
20
0.0
30
0.0
70
0
0
VERTEX
5
1fa
100
AcDbEntity
8
1
100
AcDbVertex
100
AcDb2dVertex
62
5
10
928.096667
20
482.446662
0
VERTEX
5
1fb
100
AcDbEntity
8
1
100
AcDbVertex
100
AcDb2dVertex
62
5
10
928.096667
20
482.546662
0
VERTEX
5
1fc
100
AcDbEntity
8
1
100
AcDbVertex
100
AcDb2dVertex
62
5
10
927.696667
20
482.546662
0
VERTEX
5
1fd
100
AcDbEntity
8
1
100
AcDbVertex
100
AcDb2dVertex
62
5
10
927.696667
20
510.242320
0
VERTEX
5
1fe
100
AcDbEntity
8
1
100
AcDbVertex
100
AcDb2dVertex
62
5
10
928.096667
20
510.242320
0
VERTEX
5
1ff
100
AcDbEntity
8
1
100
AcDbVertex
100
AcDb2dVertex
62
5
10
928.096666
20
510.346662
0
SEQEND
5
200
100
AcDbEntity
8
1
0
ARC
5
201
100
AcDbEntity
8
1
100
AcDbCircle
6
CONTINUOUS
62
5
10
928.196666
20
510.346662
40
0.100000
100
AcDbArc
50
89.999999
51
179.999998
0
LINE
5
202
100
AcDbEntity
8
1
100
AcDbLine
6
CONTINUOUS
62
5
10
928.196666
20
510.446662
11
929.696667
21
510.446662
0
ARC
5
203
100
AcDbEntity
8
1
100
AcDbCircle
6
CONTINUOUS
62
5
10
929.696667
20
511.446662
40
1.000000
100
AcDbArc
50
-89.999999
51
0.000000
0
LINE
5
204
100
AcDbEntity
8
1
100
AcDbLine
6
CONTINUOUS
62
5
10
930.696667
20
511.446662
11
930.696667
21
529.546662
0
ARC
5
205
100
AcDbEntity
8
1
100
AcDbCircle
6
CONTINUOUS
62
5
10
931.096667
20
529.546662
40
0.400000
100
AcDbArc
50
89.999999
51
179.999998
0
LINE
5
206
100
AcDbEntity
8
1
100
AcDbLine
6
CONTINUOUS
62
5
10
931.096667
20
529.946662
11
945.296667
21
529.946662
0
LINE
5
207
100
AcDbEntity
8
1
100
AcDbLine
6
CONTINUOUS
62
5
10
896.596667
20
528.946662
11
896.596667
21
513.746662
0
LINE
5
208
100
AcDbEntity
8
1
100
AcDbLine
6
CONTINUOUS
62
5
10
898.196667
20
528.946662
11
898.196667
21
513.746662
0
LINE
5
209
100
AcDbEntity
8
1
100
AcDbLine
6
CONTINUOUS
62
5
10
927.696449
20
514.146662
11
891.896667
21
514.146662
0
POLYLINE
5
20a
100
AcDbEntity
8
1
6
CONTINUOUS
62
5
100
AcDb2dPolyline
66
1
10
0.0
20
0.0
30
0.0
70
0
0
VERTEX
5
20b
100
AcDbEntity
8
1
100
AcDbVertex
100
AcDb2dVertex
62
5
10
927.696449
20
528.946662
0
VERTEX
5
20c
100
AcDbEntity
8
1
100
AcDbVertex
100
AcDb2dVertex
62
5
10
891.896667
20
528.946662
0
VERTEX
5
20d
100
AcDbEntity
8
1
100
AcDbVertex
100
AcDb2dVertex
62
5
10
891.896667
20
513.746662
0
VERTEX
5
20e
100
AcDbEntity
8
1
100
AcDbVertex
100
AcDb2dVertex
62
5
10
927.696449
20
513.746662
0
SEQEND
5
20f
100
AcDbEntity
8
1
0
LINE
5
210
100
AcDbEntity
8
1
100
AcDbLine
6
DOT2
62
5
10
861.122552
20
581.537308
11
864.421576
21
581.537308
0
POLYLINE
5
211
100
AcDbEntity
8
1
6
CONTINUOUS
62
5
100
AcDb2dPolyline
66
1
10
0.0
20
0.0
30
0.0
70
0
0
VERTEX
5
212
100
AcDbEntity
8
1
100
AcDbVertex
100
AcDb2dVertex
62
5
10
854.696449
20
576.737308
0
VERTEX
5
213
100
AcDbEntity
8
1
100
AcDbVertex
100
AcDb2dVertex
62
5
10
854.696449
20
579.337308
0
VERTEX
5
214
100
AcDbEntity
8
1
100
AcDbVertex
100
AcDb2dVertex
62
5
10
854.896449
20
579.537308
0
VERTEX
5
215
100
AcDbEntity
8
1
100
AcDbVertex
100
AcDb2dVertex
62
5
10
855.696449
20
579.537308
0
VERTEX
5
216
100
AcDbEntity
8
1
100
AcDbVertex
100
AcDb2dVertex
62
5
10
855.696449
20
576.737308
0
SEQEND
5
217
100
AcDbEntity
8
1
0
ARC
5
218
100
AcDbEntity
8
1
100
AcDbCircle
6
HIDDEN
62
5
10
862.696421
20
581.017503
40
1.300028
100
AcDbArc
50
179.467946
51
-0.001235
0
LINE
5
219
100
AcDbEntity
8
1
100
AcDbLine
6
HIDDEN
62
5
10
863.996449
20
581.132855
11
863.996449
21
581.017475
0
LINE
5
21a
100
AcDbEntity
8
1
100
AcDbLine
6
CONTINUOUS
62
5
10
860.696449
20
581.049408
11
860.696449
21
578.537305
0
LINE
5
21b
100
AcDbEntity
8
1
100
AcDbLine
6
DOT2
62
5
10
862.696421
20
579.576671
11
862.696421
21
584.630769
0
POLYLINE
5
21c
100
AcDbEntity
8
1
6
CONTINUOUS
62
5
100
AcDb2dPolyline
66
1
10
0.0
20
0.0
30
0.0
70
0
0
VERTEX
5
21d
100
AcDbEntity
8
1
100
AcDbVertex
100
AcDb2dVertex
62
5
10
854.696449
20
562.337308
0
VERTEX
5
21e
100
AcDbEntity
8
1
100
AcDbVertex
100
AcDb2dVertex
62
5
10
854.696449
20
559.737308
0
VERTEX
5
21f
100
AcDbEntity
8
1
100
AcDbVertex
100
AcDb2dVertex
62
5
10
854.896449
20
559.537308
0
VERTEX
5
220
100
AcDbEntity
8
1
100
AcDbVertex
100
AcDb2dVertex
62
5
10
855.696449
20
559.537308
0
VERTEX
5
221
100
AcDbEntity
8
1
100
AcDbVertex
100
AcDb2dVertex
62
5
10
855.696449
20
562.337308
0
SEQEND
5
222
100
AcDbEntity
8
1
0
LINE
5
223
100
AcDbEntity
8
1
100
AcDbLine
6
DOT2
62
5
10
860.948920
20
557.537308
11
864.785378
21
557.537308
0
ARC
5
224
100
AcDbEntity
8
1
100
AcDbCircle
6
HIDDEN
62
5
10
862.696394
20
558.017450
40
1.300028
100
AcDbArc
50
0.001235
51
-179.467946
0
LINE
5
225
100
AcDbEntity
8
1
100
AcDbLine
6
HIDDEN
62
5
10
863.996422
20
557.902097
11
863.996422
21
558.017478
0
LINE
5
226
100
AcDbEntity
8
1
100
AcDbLine
6
CONTINUOUS
62
5
10
860.696449
20
560.537308
11
860.696449
21
558.025208
0
LINE
5
227
100
AcDbEntity
8
1
100
AcDbLine
6
DIVIDE
62
5
10
858.534619
20
558.025208
11
859.534619
21
558.025208
0
LINE
5
228
100
AcDbEntity
8
1
100
AcDbLine
6
DOT2
62
5
10
862.696421
20
559.497944
11
862.696421
21
554.443846
0
LINE
5
229
100
AcDbEntity
8
1
100
AcDbLine
6
DOT2
62
5
10
851.696449
20
570.943290
11
851.696449
21
568.107438
0
CIRCLE
5
22a
100
AcDbEntity
8
1
100
AcDbCircle
6
DOT2
62
5
10
851.696449
20
569.537308
40
0.800000
0
CIRCLE
5
22b
100
AcDbEntity
8
1
100
AcDbCircle
6
CONTINUOUS
62
5
10
851.696449
20
569.537308
40
0.664700
0
CIRCLE
5
22c
100
AcDbEntity
8
1
100
AcDbCircle
6
CONTINUOUS
62
5
10
851.696449
20
569.537308
40
1.200000
0
LINE
5
22d
100
AcDbEntity
8
1
100
AcDbLine
6
DOT2
62
5
10
846.109128
20
569.537308
11
856.396390
21
569.537308
0
LINE
5
22e
100
AcDbEntity
8
1
100
AcDbLine
6
CONTINUOUS
62
5
10
860.696449
20
561.137308
11
860.696449
21
577.937308
0
LINE
5
22f
100
AcDbEntity
8
1
100
AcDbLine
6
CONTINUOUS
62
5
10
856.696449
20
579.937308
11
856.696449
21
558.025208
0
POLYLINE
5
230
100
AcDbEntity
8
1
6
CONTINUOUS
62
5
100
AcDb2dPolyline
66
1
10
0.0
20
0.0
30
0.0
70
0
0
VERTEX
5
231
100
AcDbEntity
8
1
100
AcDbVertex
100
AcDb2dVertex
62
5
10
847.696667
20
572.737308
0
VERTEX
5
232
100
AcDbEntity
8
1
100
AcDbVertex
100
AcDb2dVertex
62
5
10
847.096667
20
572.737308
0
VERTEX
5
233
100
AcDbEntity
8
1
100
AcDbVertex
100
AcDb2dVertex
62
5
10
846.696667
20
572.337308
0
VERTEX
5
234
100
AcDbEntity
8
1
100
AcDbVertex
100
AcDb2dVertex
62
5
10
846.696667
20
566.737308
0
VERTEX
5
235
100
AcDbEntity
8
1
100
AcDbVertex
100
AcDb2dVertex
62
5
10
847.096667
20
566.337308
0
VERTEX
5
236
100
AcDbEntity
8
1
100
AcDbVertex
100
AcDb2dVertex
62
5
10
847.696667
20
566.337308
0
SEQEND
5
237
100
AcDbEntity
8
1
0
LINE
5
238
100
AcDbEntity
8
1
100
AcDbLine
6
CONTINUOUS
62
5
10
847.096667
20
572.737308
11
847.096667
21
566.337308
0
POLYLINE
5
239
100
AcDbEntity
8
1
6
CONTINUOUS
62
5
100
AcDb2dPolyline
66
1
10
0.0
20
0.0
30
0.0
70
1
0
VERTEX
5
23a
100
AcDbEntity
8
1
100
AcDbVertex
100
AcDb2dVertex
62
5
10
849.696667
20
569.537308
0
VERTEX
5
23b
100
AcDbEntity
8
1
100
AcDbVertex
100
AcDb2dVertex
62
5
10
849.696667
20
576.017308
0
VERTEX
5
23c
100
AcDbEntity
8
1
100
AcDbVertex
100
AcDb2dVertex
62
5
10
848.296667
20
576.017308
0
VERTEX
5
23d
100
AcDbEntity
8
1
100
AcDbVertex
100
AcDb2dVertex
62
5
10
847.696667
20
575.417308
0
VERTEX
5
23e
100
AcDbEntity
8
1
100
AcDbVertex
100
AcDb2dVertex
62
5
10
847.696667
20
569.537308
0
VERTEX
5
23f
100
AcDbEntity
8
1
100
AcDbVertex
100
AcDb2dVertex
62
5
10
847.696667
20
563.657308
0
VERTEX
5
240
100
AcDbEntity
8
1
100
AcDbVertex
100
AcDb2dVertex
62
5
10
848.296667
20
563.057308
0
VERTEX
5
241
100
AcDbEntity
8
1
100
AcDbVertex
100
AcDb2dVertex
62
5
10
849.696667
20
563.057308
0
SEQEND
5
242
100
AcDbEntity
8
1
0
POLYLINE
5
243
100
AcDbEntity
8
1
6
CONTINUOUS
62
5
100
AcDb2dPolyline
66
1
10
0.0
20
0.0
30
0.0
70
0
0
VERTEX
5
244
100
AcDbEntity
8
1
100
AcDbVertex
100
AcDb2dVertex
62
5
10
854.696885
20
576.037308
0
VERTEX
5
245
100
AcDbEntity
8
1
100
AcDbVertex
100
AcDb2dVertex
62
5
10
849.756667
20
576.037308
0
VERTEX
5
246
100
AcDbEntity
8
1
100
AcDbVertex
100
AcDb2dVertex
62
5
10
849.696667
20
575.977308
0
VERTEX
5
247
100
AcDbEntity
8
1
100
AcDbVertex
100
AcDb2dVertex
62
5
10
849.696667
20
563.097308
0
VERTEX
5
248
100
AcDbEntity
8
1
100
AcDbVertex
100
AcDb2dVertex
62
5
10
849.756667
20
563.037308
0
VERTEX
5
249
100
AcDbEntity
8
1
100
AcDbVertex
100
AcDb2dVertex
62
5
10
854.696667
20
563.037308
0
SEQEND
5
24a
100
AcDbEntity
8
1
0
LINE
5
24b
100
AcDbEntity
8
1
100
AcDbLine
6
CONTINUOUS
62
5
10
855.696449
20
576.737308
11
855.696449
21
562.337308
0
LINE
5
24c
100
AcDbEntity
8
1
100
AcDbLine
6
CONTINUOUS
62
5
10
854.696449
20
576.737308
11
854.696449
21
562.337308
0
LINE
5
24d
100
AcDbEntity
8
1
100
AcDbLine
6
CONTINUOUS
62
5
10
854.696667
20
576.737308
11
854.696667
21
562.337308
0
LINE
5
24e
100
AcDbEntity
8
1
100
AcDbLine
6
CONTINUOUS
62
5
10
857.096449
20
577.537308
11
857.096449
21
561.537308
0
CIRCLE
5
24f
100
AcDbEntity
8
1
100
AcDbCircle
6
CONTINUOUS
62
5
10
796.112102
20
527.946662
40
0.510000
0
CIRCLE
5
250
100
AcDbEntity
8
1
100
AcDbCircle
6
CONTINUOUS
62
5
10
796.112102
20
527.946662
40
0.550000
0
POLYLINE
5
251
100
AcDbEntity
8
1
6
CONTINUOUS
62
5
100
AcDb2dPolyline
66
1
10
0.0
20
0.0
30
0.0
70
1
0
VERTEX
5
252
100
AcDbEntity
8
1
100
AcDbVertex
100
AcDb2dVertex
62
5
10
795.823427
20
527.946662
0
VERTEX
5
253
100
AcDbEntity
8
1
100
AcDbVertex
100
AcDb2dVertex
62
5
10
795.967765
20
527.696662
0
VERTEX
5
254
100
AcDbEntity
8
1
100
AcDbVertex
100
AcDb2dVertex
62
5
10
796.256440
20
527.696662
0
VERTEX
5
255
100
AcDbEntity
8
1
100
AcDbVertex
100
AcDb2dVertex
62
5
10
796.400778
20
527.946662
0
VERTEX
5
256
100
AcDbEntity
8
1
100
AcDbVertex
100
AcDb2dVertex
62
5
10
796.256440
20
528.196662
0
VERTEX
5
257
100
AcDbEntity
8
1
100
AcDbVertex
100
AcDb2dVertex
62
5
10
795.967765
20
528.196662
0
VERTEX
5
258
100
AcDbEntity
8
1
100
AcDbVertex
100
AcDb2dVertex
62
5
10
795.823427
20
527.946662
0
SEQEND
5
259
100
AcDbEntity
8
1
0
ARC
5
25a
100
AcDbEntity
8
1
100
AcDbCircle
6
CONTINUOUS
62
5
10
798.076063
20
527.710623
40
1.300000
100
AcDbArc
50
179.999998
51
-89.999999
0
POLYLINE
5
25b
100
AcDbEntity
8
1
6
CONTINUOUS
62
5
100
AcDb2dPolyline
66
1
10
0.0
20
0.0
30
0.0
70
0
0
VERTEX
5
25c
100
AcDbEntity
8
1
100
AcDbVertex
100
AcDb2dVertex
62
5
10
798.076063
20
526.410623
0
VERTEX
5
25d
100
AcDbEntity
8
1
100
AcDbVertex
100
AcDb2dVertex
62
5
10
798.912102
20
526.410623
0
VERTEX
5
25e
100
AcDbEntity
8
1
100
AcDbVertex
100
AcDb2dVertex
62
5
10
799.312102
20
526.010623
0
VERTEX
5
25f
100
AcDbEntity
8
1
100
AcDbVertex
100
AcDb2dVertex
62
5
10
799.312102
20
525.435172
0
SEQEND
5
260
100
AcDbEntity
8
1
0
POLYLINE
5
261
100
AcDbEntity
8
1
6
CONTINUOUS
62
5
100
AcDb2dPolyline
66
1
10
0.0
20
0.0
30
0.0
70
0
0
VERTEX
5
262
100
AcDbEntity
8
1
100
AcDbVertex
100
AcDb2dVertex
62
5
10
795.462754
20
528.946662
0
VERTEX
5
263
100
AcDbEntity
8
1
100
AcDbVertex
100
AcDb2dVertex
62
5
10
796.376063
20
528.946662
0
VERTEX
5
264
100
AcDbEntity
8
1
100
AcDbVertex
100
AcDb2dVertex
62
5
10
796.776063
20
528.546662
0
VERTEX
5
265
100
AcDbEntity
8
1
100
AcDbVertex
100
AcDb2dVertex
62
5
10
796.776063
20
527.710623
0
SEQEND
5
266
100
AcDbEntity
8
1
0
CIRCLE
5
267
100
AcDbEntity
8
1
100
AcDbCircle
6
CONTINUOUS
62
5
10
798.076063
20
527.710623
40
0.790000
0
CIRCLE
5
268
100
AcDbEntity
8
1
100
AcDbCircle
6
CONTINUOUS
62
5
10
798.076063
20
527.710623
40
0.850000
0
POLYLINE
5
269
100
AcDbEntity
8
1
6
CONTINUOUS
62
5
100
AcDb2dPolyline
66
1
10
0.0
20
0.0
30
0.0
70
1
0
VERTEX
5
26a
100
AcDbEntity
8
1
100
AcDbVertex
100
AcDb2dVertex
62
5
10
798.076063
20
528.172503
0
VERTEX
5
26b
100
AcDbEntity
8
1
100
AcDbVertex
100
AcDb2dVertex
62
5
10
798.476063
20
527.941563
0
VERTEX
5
26c
100
AcDbEntity
8
1
100
AcDbVertex
100
AcDb2dVertex
62
5
10
798.476063
20
527.479683
0
VERTEX
5
26d
100
AcDbEntity
8
1
100
AcDbVertex
100
AcDb2dVertex
62
5
10
798.076063
20
527.248743
0
VERTEX
5
26e
100
AcDbEntity
8
1
100
AcDbVertex
100
AcDb2dVertex
62
5
10
797.676063
20
527.479683
0
VERTEX
5
26f
100
AcDbEntity
8
1
100
AcDbVertex
100
AcDb2dVertex
62
5
10
797.676063
20
527.941563
0
VERTEX
5
270
100
AcDbEntity
8
1
100
AcDbVertex
100
AcDb2dVertex
62
5
10
798.076063
20
528.172503
0
SEQEND
5
271
100
AcDbEntity
8
1
0
ARC
5
272
100
AcDbEntity
8
1
100
AcDbCircle
6
CONTINUOUS
62
5
10
801.712102
20
526.346662
40
0.700000
100
AcDbArc
50
0.000000
51
179.999998
0
LINE
5
273
100
AcDbEntity
8
1
100
AcDbLine
6
CONTINUOUS
62
5
10
801.012102
20
526.346662
11
801.012102
21
526.042107
0
LINE
5
274
100
AcDbEntity
8
1
100
AcDbLine
6
CONTINUOUS
62
5
10
802.412102
20
526.042107
11
802.412102
21
526.346662
0
CIRCLE
5
275
100
AcDbEntity
8
1
100
AcDbCircle
6
CONTINUOUS
62
5
10
798.312102
20
516.946662
40
0.510000
0
CIRCLE
5
276
100
AcDbEntity
8
1
100
AcDbCircle
6
CONTINUOUS
62
5
10
798.312102
20
516.946662
40
0.550000
0
POLYLINE
5
277
100
AcDbEntity
8
1
6
CONTINUOUS
62
5
100
AcDb2dPolyline
66
1
10
0.0
20
0.0
30
0.0
70
1
0
VERTEX
5
278
100
AcDbEntity
8
1
100
AcDbVertex
100
AcDb2dVertex
62
5
10
798.312102
20
517.235337
0
VERTEX
5
279
100
AcDbEntity
8
1
100
AcDbVertex
100
AcDb2dVertex
62
5
10
798.062102
20
517.091000
0
VERTEX
5
27a
100
AcDbEntity
8
1
100
AcDbVertex
100
AcDb2dVertex
62
5
10
798.062102
20
516.802324
0
VERTEX
5
27b
100
AcDbEntity
8
1
100
AcDbVertex
100
AcDb2dVertex
62
5
10
798.312102
20
516.657987
0
VERTEX
5
27c
100
AcDbEntity
8
1
100
AcDbVertex
100
AcDb2dVertex
62
5
10
798.562102
20
516.802324
0
VERTEX
5
27d
100
AcDbEntity
8
1
100
AcDbVertex
100
AcDb2dVertex
62
5
10
798.562102
20
517.091000
0
VERTEX
5
27e
100
AcDbEntity
8
1
100
AcDbVertex
100
AcDb2dVertex
62
5
10
798.312102
20
517.235337
0
SEQEND
5
27f
100
AcDbEntity
8
1
0
ARC
5
280
100
AcDbEntity
8
1
100
AcDbCircle
6
CONTINUOUS
62
5
10
801.712102
20
518.346662
40
0.700000
100
AcDbArc
50
0.000000
51
179.999998
0
LINE
5
281
100
AcDbEntity
8
1
100
AcDbLine
6
CONTINUOUS
62
5
10
801.012102
20
518.346662
11
801.012102
21
518.042107
0
LINE
5
282
100
AcDbEntity
8
1
100
AcDbLine
6
CONTINUOUS
62
5
10
802.412102
20
518.042107
11
802.412102
21
518.346662
0
CIRCLE
5
283
100
AcDbEntity
8
1
100
AcDbCircle
6
CONTINUOUS
62
5
10
801.712102
20
516.946662
40
0.920000
0
CIRCLE
5
284
100
AcDbEntity
8
1
100
AcDbCircle
6
CONTINUOUS
62
5
10
801.712102
20
516.946662
40
1.000000
0
POLYLINE
5
285
100
AcDbEntity
8
1
6
CONTINUOUS
62
5
100
AcDb2dPolyline
66
1
10
0.0
20
0.0
30
0.0
70
1
0
VERTEX
5
286
100
AcDbEntity
8
1
100
AcDbVertex
100
AcDb2dVertex
62
5
10
801.712102
20
517.524012
0
VERTEX
5
287
100
AcDbEntity
8
1
100
AcDbVertex
100
AcDb2dVertex
62
5
10
802.212102
20
517.235337
0
VERTEX
5
288
100
AcDbEntity
8
1
100
AcDbVertex
100
AcDb2dVertex
62
5
10
802.212102
20
516.657987
0
VERTEX
5
289
100
AcDbEntity
8
1
100
AcDbVertex
100
AcDb2dVertex
62
5
10
801.712102
20
516.369312
0
VERTEX
5
28a
100
AcDbEntity
8
1
100
AcDbVertex
100
AcDb2dVertex
62
5
10
801.212102
20
516.657987
0
VERTEX
5
28b
100
AcDbEntity
8
1
100
AcDbVertex
100
AcDb2dVertex
62
5
10
801.212102
20
517.235337
0
VERTEX
5
28c
100
AcDbEntity
8
1
100
AcDbVertex
100
AcDb2dVertex
62
5
10
801.712102
20
517.524012
0
SEQEND
5
28d
100
AcDbEntity
8
1
0
CIRCLE
5
28e
100
AcDbEntity
8
1
100
AcDbCircle
6
CONTINUOUS
62
5
10
801.712102
20
524.946662
40
0.920000
0
CIRCLE
5
28f
100
AcDbEntity
8
1
100
AcDbCircle
6
CONTINUOUS
62
5
10
801.712102
20
524.946662
40
1.000000
0
POLYLINE
5
290
100
AcDbEntity
8
1
6
CONTINUOUS
62
5
100
AcDb2dPolyline
66
1
10
0.0
20
0.0
30
0.0
70
1
0
VERTEX
5
291
100
AcDbEntity
8
1
100
AcDbVertex
100
AcDb2dVertex
62
5
10
801.712102
20
525.524012
0
VERTEX
5
292
100
AcDbEntity
8
1
100
AcDbVertex
100
AcDb2dVertex
62
5
10
802.212102
20
525.235337
0
VERTEX
5
293
100
AcDbEntity
8
1
100
AcDbVertex
100
AcDb2dVertex
62
5
10
802.212102
20
524.657987
0
VERTEX
5
294
100
AcDbEntity
8
1
100
AcDbVertex
100
AcDb2dVertex
62
5
10
801.712102
20
524.369312
0
VERTEX
5
295
100
AcDbEntity
8
1
100
AcDbVertex
100
AcDb2dVertex
62
5
10
801.212102
20
524.657987
0
VERTEX
5
296
100
AcDbEntity
8
1
100
AcDbVertex
100
AcDb2dVertex
62
5
10
801.212102
20
525.235337
0
VERTEX
5
297
100
AcDbEntity
8
1
100
AcDbVertex
100
AcDb2dVertex
62
5
10
801.712102
20
525.524012
0
SEQEND
5
298
100
AcDbEntity
8
1
0
CIRCLE
5
299
100
AcDbEntity
8
1
100
AcDbCircle
6
CONTINUOUS
62
5
10
801.712102
20
516.946662
40
1.300000
0
CIRCLE
5
29a
100
AcDbEntity
8
1
100
AcDbCircle
6
CONTINUOUS
62
5
10
801.712102
20
524.946662
40
1.300000
0
ARC
5
29b
100
AcDbEntity
8
1
100
AcDbCircle
6
CONTINUOUS
62
5
10
781.712102
20
526.346662
40
0.700000
100
AcDbArc
50
0.000000
51
179.999998
0
LINE
5
29c
100
AcDbEntity
8
1
100
AcDbLine
6
CONTINUOUS
62
5
10
782.412102
20
526.346662
11
782.412102
21
526.042107
0
LINE
5
29d
100
AcDbEntity
8
1
100
AcDbLine
6
CONTINUOUS
62
5
10
781.012102
20
526.042107
11
781.012102
21
526.346662
0
CIRCLE
5
29e
100
AcDbEntity
8
1
100
AcDbCircle
6
CONTINUOUS
62
5
10
785.348141
20
527.710623
40
0.790000
0
CIRCLE
5
29f
100
AcDbEntity
8
1
100
AcDbCircle
6
CONTINUOUS
62
5
10
785.348141
20
527.710623
40
0.850000
0
POLYLINE
5
2a0
100
AcDbEntity
8
1
6
CONTINUOUS
62
5
100
AcDb2dPolyline
66
1
10
0.0
20
0.0
30
0.0
70
1
0
VERTEX
5
2a1
100
AcDbEntity
8
1
100
AcDbVertex
100
AcDb2dVertex
62
5
10
785.348141
20
528.172503
0
VERTEX
5
2a2
100
AcDbEntity
8
1
100
AcDbVertex
100
AcDb2dVertex
62
5
10
785.748141
20
527.941563
0
VERTEX
5
2a3
100
AcDbEntity
8
1
100
AcDbVertex
100
AcDb2dVertex
62
5
10
785.748141
20
527.479683
0
VERTEX
5
2a4
100
AcDbEntity
8
1
100
AcDbVertex
100
AcDb2dVertex
62
5
10
785.348141
20
527.248743
0
VERTEX
5
2a5
100
AcDbEntity
8
1
100
AcDbVertex
100
AcDb2dVertex
62
5
10
784.948141
20
527.479683
0
VERTEX
5
2a6
100
AcDbEntity
8
1
100
AcDbVertex
100
AcDb2dVertex
62
5
10
784.948141
20
527.941563
0
VERTEX
5
2a7
100
AcDbEntity
8
1
100
AcDbVertex
100
AcDb2dVertex
62
5
10
785.348141
20
528.172503
0
SEQEND
5
2a8
100
AcDbEntity
8
1
0
CIRCLE
5
2a9
100
AcDbEntity
8
1
100
AcDbCircle
6
CONTINUOUS
62
5
10
785.112102
20
525.746662
40
0.510000
0
CIRCLE
5
2aa
100
AcDbEntity
8
1
100
AcDbCircle
6
CONTINUOUS
62
5
10
785.112102
20
525.746662
40
0.550000
0
POLYLINE
5
2ab
100
AcDbEntity
8
1
6
CONTINUOUS
62
5
100
AcDb2dPolyline
66
1
10
0.0
20
0.0
30
0.0
70
1
0
VERTEX
5
2ac
100
AcDbEntity
8
1
100
AcDbVertex
100
AcDb2dVertex
62
5
10
785.112102
20
525.457987
0
VERTEX
5
2ad
100
AcDbEntity
8
1
100
AcDbVertex
100
AcDb2dVertex
62
5
10
785.362102
20
525.602324
0
VERTEX
5
2ae
100
AcDbEntity
8
1
100
AcDbVertex
100
AcDb2dVertex
62
5
10
785.362102
20
525.891000
0
VERTEX
5
2af
100
AcDbEntity
8
1
100
AcDbVertex
100
AcDb2dVertex
62
5
10
785.112102
20
526.035337
0
VERTEX
5
2b0
100
AcDbEntity
8
1
100
AcDbVertex
100
AcDb2dVertex
62
5
10
784.862102
20
525.891000
0
VERTEX
5
2b1
100
AcDbEntity
8
1
100
AcDbVertex
100
AcDb2dVertex
62
5
10
784.862102
20
525.602324
0
VERTEX
5
2b2
100
AcDbEntity
8
1
100
AcDbVertex
100
AcDb2dVertex
62
5
10
785.112102
20
525.457987
0
SEQEND
5
2b3
100
AcDbEntity
8
1
0
ARC
5
2b4
100
AcDbEntity
8
1
100
AcDbCircle
6
CONTINUOUS
62
5
10
785.348141
20
527.710623
40
1.300000
100
AcDbArc
50
-89.999999
51
0.000000
0
POLYLINE
5
2b5
100
AcDbEntity
8
1
6
CONTINUOUS
62
5
100
AcDb2dPolyline
66
1
10
0.0
20
0.0
30
0.0
70
0
0
VERTEX
5
2b6
100
AcDbEntity
8
1
100
AcDbVertex
100
AcDb2dVertex
62
5
10
786.648141
20
527.710623
0
VERTEX
5
2b7
100
AcDbEntity
8
1
100
AcDbVertex
100
AcDb2dVertex
62
5
10
786.648141
20
528.546662
0
VERTEX
5
2b8
100
AcDbEntity
8
1
100
AcDbVertex
100
AcDb2dVertex
62
5
10
787.048141
20
528.946662
0
VERTEX
5
2b9
100
AcDbEntity
8
1
100
AcDbVertex
100
AcDb2dVertex
62
5
10
787.623592
20
528.946662
0
SEQEND
5
2ba
100
AcDbEntity
8
1
0
POLYLINE
5
2bb
100
AcDbEntity
8
1
6
CONTINUOUS
62
5
100
AcDb2dPolyline
66
1
10
0.0
20
0.0
30
0.0
70
0
0
VERTEX
5
2bc
100
AcDbEntity
8
1
100
AcDbVertex
100
AcDb2dVertex
62
5
10
784.112102
20
525.097314
0
VERTEX
5
2bd
100
AcDbEntity
8
1
100
AcDbVertex
100
AcDb2dVertex
62
5
10
784.112102
20
526.010623
0
VERTEX
5
2be
100
AcDbEntity
8
1
100
AcDbVertex
100
AcDb2dVertex
62
5
10
784.512102
20
526.410623
0
VERTEX
5
2bf
100
AcDbEntity
8
1
100
AcDbVertex
100
AcDb2dVertex
62
5
10
785.348141
20
526.410623
0
SEQEND
5
2c0
100
AcDbEntity
8
1
0
ARC
5
2c1
100
AcDbEntity
8
1
100
AcDbCircle
6
CONTINUOUS
62
5
10
781.712102
20
518.346662
40
0.700000
100
AcDbArc
50
0.000000
51
179.999998
0
LINE
5
2c2
100
AcDbEntity
8
1
100
AcDbLine
6
CONTINUOUS
62
5
10
782.412102
20
518.346662
11
782.412102
21
518.042107
0
LINE
5
2c3
100
AcDbEntity
8
1
100
AcDbLine
6
CONTINUOUS
62
5
10
781.012102
20
518.042107
11
781.012102
21
518.346662
0
CIRCLE
5
2c4
100
AcDbEntity
8
1
100
AcDbCircle
6
CONTINUOUS
62
5
10
781.712102
20
516.946662
40
0.920000
0
CIRCLE
5
2c5
100
AcDbEntity
8
1
100
AcDbCircle
6
CONTINUOUS
62
5
10
781.712102
20
516.946662
40
1.000000
0
POLYLINE
5
2c6
100
AcDbEntity
8
1
6
CONTINUOUS
62
5
100
AcDb2dPolyline
66
1
10
0.0
20
0.0
30
0.0
70
1
0
VERTEX
5
2c7
100
AcDbEntity
8
1
100
AcDbVertex
100
AcDb2dVertex
62
5
10
781.712102
20
517.524012
0
VERTEX
5
2c8
100
AcDbEntity
8
1
100
AcDbVertex
100
AcDb2dVertex
62
5
10
782.212102
20
517.235337
0
VERTEX
5
2c9
100
AcDbEntity
8
1
100
AcDbVertex
100
AcDb2dVertex
62
5
10
782.212102
20
516.657987
0
VERTEX
5
2ca
100
AcDbEntity
8
1
100
AcDbVertex
100
AcDb2dVertex
62
5
10
781.712102
20
516.369312
0
VERTEX
5
2cb
100
AcDbEntity
8
1
100
AcDbVertex
100
AcDb2dVertex
62
5
10
781.212102
20
516.657987
0
VERTEX
5
2cc
100
AcDbEntity
8
1
100
AcDbVertex
100
AcDb2dVertex
62
5
10
781.212102
20
517.235337
0
VERTEX
5
2cd
100
AcDbEntity
8
1
100
AcDbVertex
100
AcDb2dVertex
62
5
10
781.712102
20
517.524012
0
SEQEND
5
2ce
100
AcDbEntity
8
1
0
CIRCLE
5
2cf
100
AcDbEntity
8
1
100
AcDbCircle
6
CONTINUOUS
62
5
10
781.712102
20
516.946662
40
1.300000
0
CIRCLE
5
2d0
100
AcDbEntity
8
1
100
AcDbCircle
6
CONTINUOUS
62
5
10
781.712102
20
524.946662
40
0.920000
0
CIRCLE
5
2d1
100
AcDbEntity
8
1
100
AcDbCircle
6
CONTINUOUS
62
5
10
781.712102
20
524.946662
40
1.000000
0
POLYLINE
5
2d2
100
AcDbEntity
8
1
6
CONTINUOUS
62
5
100
AcDb2dPolyline
66
1
10
0.0
20
0.0
30
0.0
70
1
0
VERTEX
5
2d3
100
AcDbEntity
8
1
100
AcDbVertex
100
AcDb2dVertex
62
5
10
781.712102
20
525.524012
0
VERTEX
5
2d4
100
AcDbEntity
8
1
100
AcDbVertex
100
AcDb2dVertex
62
5
10
782.212102
20
525.235337
0
VERTEX
5
2d5
100
AcDbEntity
8
1
100
AcDbVertex
100
AcDb2dVertex
62
5
10
782.212102
20
524.657987
0
VERTEX
5
2d6
100
AcDbEntity
8
1
100
AcDbVertex
100
AcDb2dVertex
62
5
10
781.712102
20
524.369312
0
VERTEX
5
2d7
100
AcDbEntity
8
1
100
AcDbVertex
100
AcDb2dVertex
62
5
10
781.212102
20
524.657987
0
VERTEX
5
2d8
100
AcDbEntity
8
1
100
AcDbVertex
100
AcDb2dVertex
62
5
10
781.212102
20
525.235337
0
VERTEX
5
2d9
100
AcDbEntity
8
1
100
AcDbVertex
100
AcDb2dVertex
62
5
10
781.712102
20
525.524012
0
SEQEND
5
2da
100
AcDbEntity
8
1
0
CIRCLE
5
2db
100
AcDbEntity
8
1
100
AcDbCircle
6
CONTINUOUS
62
5
10
781.712102
20
524.946662
40
1.300000
0
ARC
5
2dc
100
AcDbEntity
8
1
100
AcDbCircle
6
CONTINUOUS
62
5
10
801.301838
20
528.442713
40
1.000000
100
AcDbArc
50
45.000000
51
86.999999
0
POLYLINE
5
2dd
100
AcDbEntity
8
1
6
CONTINUOUS
62
5
100
AcDb2dPolyline
66
1
10
0.0
20
0.0
30
0.0
70
0
0
VERTEX
5
2de
100
AcDbEntity
8
1
100
AcDbVertex
100
AcDb2dVertex
62
5
10
801.354174
20
529.441342
0
VERTEX
5
2df
100
AcDbEntity
8
1
100
AcDbVertex
100
AcDb2dVertex
62
5
10
791.712102
20
529.946662
0
VERTEX
5
2e0
100
AcDbEntity
8
1
100
AcDbVertex
100
AcDb2dVertex
62
5
10
782.070031
20
529.441342
0
SEQEND
5
2e1
100
AcDbEntity
8
1
0
ARC
5
2e2
100
AcDbEntity
8
1
100
AcDbCircle
6
CONTINUOUS
62
5
10
782.122367
20
528.442713
40
1.000000
100
AcDbArc
50
92.999999
51
134.999999
0
LINE
5
2e3
100
AcDbEntity
8
1
100
AcDbLine
6
CONTINUOUS
62
5
10
781.415260
20
529.149820
11
781.207538
21
528.942098
0
LINE
5
2e4
100
AcDbEntity
8
1
100
AcDbLine
6
CONTINUOUS
62
5
10
802.216667
20
528.942098
11
802.008945
21
529.149820
0
LINE
5
2e5
100
AcDbEntity
8
1
100
AcDbLine
6
DOT2
62
5
10
783.452542
20
521.346662
11
799.962542
21
521.346662
0
POLYLINE
5
2e6
100
AcDbEntity
8
1
6
CONTINUOUS
62
5
100
AcDb2dPolyline
66
1
10
0.0
20
0.0
30
0.0
70
0
0
VERTEX
5
2e7
100
AcDbEntity
8
1
100
AcDbVertex
100
AcDb2dVertex
62
5
10
854.696667
20
502.146662
0
VERTEX
5
2e8
100
AcDbEntity
8
1
100
AcDbVertex
100
AcDb2dVertex
62
5
10
854.696667
20
504.746662
0
VERTEX
5
2e9
100
AcDbEntity
8
1
100
AcDbVertex
100
AcDb2dVertex
62
5
10
854.896667
20
504.946662
0
VERTEX
5
2ea
100
AcDbEntity
8
1
100
AcDbVertex
100
AcDb2dVertex
62
5
10
855.696667
20
504.946662
0
VERTEX
5
2eb
100
AcDbEntity
8
1
100
AcDbVertex
100
AcDb2dVertex
62
5
10
855.696667
20
502.146662
0
SEQEND
5
2ec
100
AcDbEntity
8
1
0
LINE
5
2ed
100
AcDbEntity
8
1
100
AcDbLine
6
CONTINUOUS
62
5
10
861.396449
20
483.946662
11
861.396449
21
479.946662
0
LINE
5
2ee
100
AcDbEntity
8
1
100
AcDbLine
6
CONTINUOUS
62
5
10
863.996449
20
479.946662
11
863.996449
21
483.946662
0
LINE
5
2ef
100
AcDbEntity
8
1
100
AcDbLine
6
CONTINUOUS
62
5
10
858.696667
20
483.946662
11
858.696667
21
479.946662
0
LINE
5
2f0
100
AcDbEntity
8
1
100
AcDbLine
6
DOT2
62
5
10
862.696449
20
484.946662
11
862.696449
21
478.946662
0
POLYLINE
5
2f1
100
AcDbEntity
8
1
6
CONTINUOUS
62
5
100
AcDb2dPolyline
66
1
10
0.0
20
0.0
30
0.0
70
0
0
VERTEX
5
2f2
100
AcDbEntity
8
1
100
AcDbVertex
100
AcDb2dVertex
62
5
10
854.696667
20
487.746662
0
VERTEX
5
2f3
100
AcDbEntity
8
1
100
AcDbVertex
100
AcDb2dVertex
62
5
10
854.696667
20
485.146662
0
VERTEX
5
2f4
100
AcDbEntity
8
1
100
AcDbVertex
100
AcDb2dVertex
62
5
10
854.896667
20
484.946662
0
VERTEX
5
2f5
100
AcDbEntity
8
1
100
AcDbVertex
100
AcDb2dVertex
62
5
10
855.696667
20
484.946662
0
VERTEX
5
2f6
100
AcDbEntity
8
1
100
AcDbVertex
100
AcDb2dVertex
62
5
10
855.696667
20
487.746662
0
SEQEND
5
2f7
100
AcDbEntity
8
1
0
LINE
5
2f8
100
AcDbEntity
8
1
100
AcDbLine
6
CONTINUOUS
62
5
10
860.696667
20
506.946662
11
860.696667
21
492.699709
0
CIRCLE
5
2f9
100
AcDbEntity
8
1
100
AcDbCircle
6
CONTINUOUS
62
5
10
863.196667
20
494.946662
40
0.100000
0
CIRCLE
5
2fa
100
AcDbEntity
8
1
100
AcDbCircle
6
CONTINUOUS
62
5
10
863.196667
20
494.946662
40
0.678757
0
CIRCLE
5
2fb
100
AcDbEntity
8
1
100
AcDbCircle
6
CONTINUOUS
62
5
10
863.196667
20
494.946662
40
0.800000
0
POLYLINE
5
2fc
100
AcDbEntity
8
1
6
CONTINUOUS
62
5
100
AcDb2dPolyline
66
1
10
0.0
20
0.0
30
0.0
70
1
0
VERTEX
5
2fd
100
AcDbEntity
8
1
100
AcDbVertex
100
AcDb2dVertex
62
5
10
863.196667
20
495.870422
0
VERTEX
5
2fe
100
AcDbEntity
8
1
100
AcDbVertex
100
AcDb2dVertex
62
5
10
863.996667
20
495.408542
0
VERTEX
5
2ff
100
AcDbEntity
8
1
100
AcDbVertex
100
AcDb2dVertex
62
5
10
863.996667
20
494.484782
0
VERTEX
5
300
100
AcDbEntity
8
1
100
AcDbVertex
100
AcDb2dVertex
62
5
10
863.196667
20
494.022902
0
VERTEX
5
301
100
AcDbEntity
8
1
100
AcDbVertex
100
AcDb2dVertex
62
5
10
862.396667
20
494.484782
0
VERTEX
5
302
100
AcDbEntity
8
1
100
AcDbVertex
100
AcDb2dVertex
62
5
10
862.396667
20
495.408542
0
VERTEX
5
303
100
AcDbEntity
8
1
100
AcDbVertex
100
AcDb2dVertex
62
5
10
863.196667
20
495.870422
0
SEQEND
5
304
100
AcDbEntity
8
1
0
CIRCLE
5
305
100
AcDbEntity
8
1
100
AcDbCircle
6
CONTINUOUS
62
5
10
863.196667
20
494.946662
40
1.200000
0
POLYLINE
5
306
100
AcDbEntity
8
1
6
CONTINUOUS
62
5
100
AcDb2dPolyline
66
1
10
0.0
20
0.0
30
0.0
70
0
0
VERTEX
5
307
100
AcDbEntity
8
1
100
AcDbVertex
100
AcDb2dVertex
62
5
10
847.696667
20
498.146662
0
VERTEX
5
308
100
AcDbEntity
8
1
100
AcDbVertex
100
AcDb2dVertex
62
5
10
847.096667
20
498.146662
0
VERTEX
5
309
100
AcDbEntity
8
1
100
AcDbVertex
100
AcDb2dVertex
62
5
10
846.696667
20
497.746662
0
VERTEX
5
30a
100
AcDbEntity
8
1
100
AcDbVertex
100
AcDb2dVertex
62
5
10
846.696667
20
492.146662
0
VERTEX
5
30b
100
AcDbEntity
8
1
100
AcDbVertex
100
AcDb2dVertex
62
5
10
847.096667
20
491.746662
0
VERTEX
5
30c
100
AcDbEntity
8
1
100
AcDbVertex
100
AcDb2dVertex
62
5
10
847.696667
20
491.746662
0
SEQEND
5
30d
100
AcDbEntity
8
1
0
LINE
5
30e
100
AcDbEntity
8
1
100
AcDbLine
6
CONTINUOUS
62
5
10
847.096667
20
498.146662
11
847.096667
21
491.746662
0
POLYLINE
5
30f
100
AcDbEntity
8
1
6
CONTINUOUS
62
5
100
AcDb2dPolyline
66
1
10
0.0
20
0.0
30
0.0
70
1
0
VERTEX
5
310
100
AcDbEntity
8
1
100
AcDbVertex
100
AcDb2dVertex
62
5
10
849.696667
20
494.946662
0
VERTEX
5
311
100
AcDbEntity
8
1
100
AcDbVertex
100
AcDb2dVertex
62
5
10
849.696667
20
501.426662
0
VERTEX
5
312
100
AcDbEntity
8
1
100
AcDbVertex
100
AcDb2dVertex
62
5
10
848.296667
20
501.426662
0
VERTEX
5
313
100
AcDbEntity
8
1
100
AcDbVertex
100
AcDb2dVertex
62
5
10
847.696667
20
500.826662
0
VERTEX
5
314
100
AcDbEntity
8
1
100
AcDbVertex
100
AcDb2dVertex
62
5
10
847.696667
20
494.946662
0
VERTEX
5
315
100
AcDbEntity
8
1
100
AcDbVertex
100
AcDb2dVertex
62
5
10
847.696667
20
489.066662
0
VERTEX
5
316
100
AcDbEntity
8
1
100
AcDbVertex
100
AcDb2dVertex
62
5
10
848.296667
20
488.466662
0
VERTEX
5
317
100
AcDbEntity
8
1
100
AcDbVertex
100
AcDb2dVertex
62
5
10
849.696667
20
488.466662
0
SEQEND
5
318
100
AcDbEntity
8
1
0
LINE
5
319
100
AcDbEntity
8
1
100
AcDbLine
6
DOT2
62
5
10
853.914336
20
494.946662
11
856.396608
21
494.946662
0
POLYLINE
5
31a
100
AcDbEntity
8
1
6
CONTINUOUS
62
5
100
AcDb2dPolyline
66
1
10
0.0
20
0.0
30
0.0
70
0
0
VERTEX
5
31b
100
AcDbEntity
8
1
100
AcDbVertex
100
AcDb2dVertex
62
5
10
854.696885
20
501.446662
0
VERTEX
5
31c
100
AcDbEntity
8
1
100
AcDbVertex
100
AcDb2dVertex
62
5
10
849.756667
20
501.446662
0
VERTEX
5
31d
100
AcDbEntity
8
1
100
AcDbVertex
100
AcDb2dVertex
62
5
10
849.696667
20
501.386662
0
VERTEX
5
31e
100
AcDbEntity
8
1
100
AcDbVertex
100
AcDb2dVertex
62
5
10
849.696667
20
488.506662
0
VERTEX
5
31f
100
AcDbEntity
8
1
100
AcDbVertex
100
AcDb2dVertex
62
5
10
849.756667
20
488.446662
0
VERTEX
5
320
100
AcDbEntity
8
1
100
AcDbVertex
100
AcDb2dVertex
62
5
10
854.696667
20
488.446662
0
SEQEND
5
321
100
AcDbEntity
8
1
0
LINE
5
322
100
AcDbEntity
8
1
100
AcDbLine
6
CONTINUOUS
62
5
10
855.696667
20
502.146662
11
855.696667
21
487.746662
0
LINE
5
323
100
AcDbEntity
8
1
100
AcDbLine
6
CONTINUOUS
62
5
10
854.696667
20
502.146662
11
854.696667
21
487.746662
0
LINE
5
324
100
AcDbEntity
8
1
100
AcDbLine
6
CONTINUOUS
62
5
10
854.696667
20
502.146662
11
854.696667
21
487.746662
0
LINE
5
325
100
AcDbEntity
8
1
100
AcDbLine
6
CONTINUOUS
62
5
10
856.696449
20
504.946662
11
856.696449
21
484.946662
0
POLYLINE
5
326
100
AcDbEntity
8
1
6
DIVIDE
62
5
100
AcDb2dPolyline
66
1
10
0.0
20
0.0
30
0.0
70
0
0
VERTEX
5
327
100
AcDbEntity
8
1
100
AcDbVertex
100
AcDb2dVertex
62
5
10
833.030444
20
501.446662
0
VERTEX
5
328
100
AcDbEntity
8
1
100
AcDbVertex
100
AcDb2dVertex
62
5
10
827.696885
20
501.446662
0
VERTEX
5
329
100
AcDbEntity
8
1
100
AcDbVertex
100
AcDb2dVertex
62
5
10
826.696885
20
500.446662
0
VERTEX
5
32a
100
AcDbEntity
8
1
100
AcDbVertex
100
AcDb2dVertex
62
5
10
826.696885
20
497.146662
0
SEQEND
5
32b
100
AcDbEntity
8
1
0
POLYLINE
5
32c
100
AcDbEntity
8
1
6
DIVIDE
62
5
100
AcDb2dPolyline
66
1
10
0.0
20
0.0
30
0.0
70
0
0
VERTEX
5
32d
100
AcDbEntity
8
1
100
AcDbVertex
100
AcDb2dVertex
62
5
10
833.030444
20
488.446662
0
VERTEX
5
32e
100
AcDbEntity
8
1
100
AcDbVertex
100
AcDb2dVertex
62
5
10
827.696885
20
488.446662
0
VERTEX
5
32f
100
AcDbEntity
8
1
100
AcDbVertex
100
AcDb2dVertex
62
5
10
826.696885
20
489.446662
0
VERTEX
5
330
100
AcDbEntity
8
1
100
AcDbVertex
100
AcDb2dVertex
62
5
10
826.696885
20
492.746662
0
SEQEND
5
331
100
AcDbEntity
8
1
0
LINE
5
332
100
AcDbEntity
8
1
100
AcDbLine
6
DIVIDE
62
5
10
826.696885
20
497.146662
11
826.696885
21
492.746662
0
LINE
5
333
100
AcDbEntity
8
1
100
AcDbLine
6
CONTINUOUS
62
5
10
792.712102
20
511.346662
11
792.712102
21
510.646662
0
POLYLINE
5
334
100
AcDbEntity
8
1
6
CONTINUOUS
62
5
100
AcDb2dPolyline
66
1
10
0.0
20
0.0
30
0.0
70
0
0
VERTEX
5
335
100
AcDbEntity
8
1
100
AcDbVertex
100
AcDb2dVertex
62
5
10
791.712102
20
511.346662
0
VERTEX
5
336
100
AcDbEntity
8
1
100
AcDbVertex
100
AcDb2dVertex
62
5
10
794.712102
20
511.346662
0
VERTEX
5
337
100
AcDbEntity
8
1
100
AcDbVertex
100
AcDb2dVertex
62
5
10
795.312102
20
511.946662
0
VERTEX
5
338
100
AcDbEntity
8
1
100
AcDbVertex
100
AcDb2dVertex
62
5
10
795.312102
20
513.746662
0
SEQEND
5
339
100
AcDbEntity
8
1
0
CIRCLE
5
33a
100
AcDbEntity
8
1
100
AcDbCircle
6
CONTINUOUS
62
5
10
796.212102
20
502.740891
40
0.790000
0
CIRCLE
5
33b
100
AcDbEntity
8
1
100
AcDbCircle
6
CONTINUOUS
62
5
10
796.212102
20
502.740891
40
0.850000
0
POLYLINE
5
33c
100
AcDbEntity
8
1
6
CONTINUOUS
62
5
100
AcDb2dPolyline
66
1
10
0.0
20
0.0
30
0.0
70
1
0
VERTEX
5
33d
100
AcDbEntity
8
1
100
AcDbVertex
100
AcDb2dVertex
62
5
10
796.443043
20
503.140891
0
VERTEX
5
33e
100
AcDbEntity
8
1
100
AcDbVertex
100
AcDb2dVertex
62
5
10
796.673983
20
502.740891
0
VERTEX
5
33f
100
AcDbEntity
8
1
100
AcDbVertex
100
AcDb2dVertex
62
5
10
796.443043
20
502.340891
0
VERTEX
5
340
100
AcDbEntity
8
1
100
AcDbVertex
100
AcDb2dVertex
62
5
10
795.981162
20
502.340891
0
VERTEX
5
341
100
AcDbEntity
8
1
100
AcDbVertex
100
AcDb2dVertex
62
5
10
795.750222
20
502.740891
0
VERTEX
5
342
100
AcDbEntity
8
1
100
AcDbVertex
100
AcDb2dVertex
62
5
10
795.981162
20
503.140891
0
VERTEX
5
343
100
AcDbEntity
8
1
100
AcDbVertex
100
AcDb2dVertex
62
5
10
796.443043
20
503.140891
0
SEQEND
5
344
100
AcDbEntity
8
1
0
LINE
5
345
100
AcDbEntity
8
1
100
AcDbLine
6
DASHED
62
5
10
792.912102
20
497.913141
11
792.912102
21
501.334932
0
LINE
5
346
100
AcDbEntity
8
1
100
AcDbLine
6
DASHED
62
5
10
792.376802
20
498.076865
11
792.376802
21
496.832974
0
LINE
5
347
100
AcDbEntity
8
1
100
AcDbLine
6
DASHED
62
5
10
792.512102
20
498.045049
11
792.512102
21
496.779692
0
CIRCLE
5
348
100
AcDbEntity
8
1
100
AcDbCircle
6
CONTINUOUS
62
5
10
794.212102
20
499.276789
40
0.780000
0
CIRCLE
5
349
100
AcDbEntity
8
1
100
AcDbCircle
6
CONTINUOUS
62
5
10
794.212102
20
499.276789
40
0.850000
0
POLYLINE
5
34a
100
AcDbEntity
8
1
6
CONTINUOUS
62
5
100
AcDb2dPolyline
66
1
10
0.0
20
0.0
30
0.0
70
1
0
VERTEX
5
34b
100
AcDbEntity
8
1
100
AcDbVertex
100
AcDb2dVertex
62
5
10
794.443043
20
499.676789
0
VERTEX
5
34c
100
AcDbEntity
8
1
100
AcDbVertex
100
AcDb2dVertex
62
5
10
794.673983
20
499.276789
0
VERTEX
5
34d
100
AcDbEntity
8
1
100
AcDbVertex
100
AcDb2dVertex
62
5
10
794.443043
20
498.876789
0
VERTEX
5
34e
100
AcDbEntity
8
1
100
AcDbVertex
100
AcDb2dVertex
62
5
10
793.981162
20
498.876789
0
VERTEX
5
34f
100
AcDbEntity
8
1
100
AcDbVertex
100
AcDb2dVertex
62
5
10
793.750222
20
499.276789
0
VERTEX
5
350
100
AcDbEntity
8
1
100
AcDbVertex
100
AcDb2dVertex
62
5
10
793.981162
20
499.676789
0
VERTEX
5
351
100
AcDbEntity
8
1
100
AcDbVertex
100
AcDb2dVertex
62
5
10
794.443043
20
499.676789
0
SEQEND
5
352
100
AcDbEntity
8
1
0
ARC
5
353
100
AcDbEntity
8
1
100
AcDbCircle
6
HIDDEN
62
5
10
805.312102
20
482.905047
40
0.400000
100
AcDbArc
50
0.000000
51
86.999999
0
LINE
5
354
100
AcDbEntity
8
1
100
AcDbLine
6
HIDDEN
62
5
10
805.712102
20
482.905047
11
805.712102
21
479.946662
0
LINE
5
355
100
AcDbEntity
8
1
100
AcDbLine
6
CONTINUOUS
62
5
10
804.312102
20
483.051478
11
804.312102
21
479.946662
0
CIRCLE
5
356
100
AcDbEntity
8
1
100
AcDbCircle
6
CONTINUOUS
62
5
10
796.212102
20
487.152433
40
0.790000
0
CIRCLE
5
357
100
AcDbEntity
8
1
100
AcDbCircle
6
CONTINUOUS
62
5
10
796.212102
20
487.152433
40
0.850000
0
POLYLINE
5
358
100
AcDbEntity
8
1
6
CONTINUOUS
62
5
100
AcDb2dPolyline
66
1
10
0.0
20
0.0
30
0.0
70
1
0
VERTEX
5
359
100
AcDbEntity
8
1
100
AcDbVertex
100
AcDb2dVertex
62
5
10
796.443043
20
486.752433
0
VERTEX
5
35a
100
AcDbEntity
8
1
100
AcDbVertex
100
AcDb2dVertex
62
5
10
795.981162
20
486.752433
0
VERTEX
5
35b
100
AcDbEntity
8
1
100
AcDbVertex
100
AcDb2dVertex
62
5
10
795.750222
20
487.152433
0
VERTEX
5
35c
100
AcDbEntity
8
1
100
AcDbVertex
100
AcDb2dVertex
62
5
10
795.981162
20
487.552433
0
VERTEX
5
35d
100
AcDbEntity
8
1
100
AcDbVertex
100
AcDb2dVertex
62
5
10
796.443043
20
487.552433
0
VERTEX
5
35e
100
AcDbEntity
8
1
100
AcDbVertex
100
AcDb2dVertex
62
5
10
796.673983
20
487.152433
0
VERTEX
5
35f
100
AcDbEntity
8
1
100
AcDbVertex
100
AcDb2dVertex
62
5
10
796.443043
20
486.752433
0
SEQEND
5
360
100
AcDbEntity
8
1
0
CIRCLE
5
361
100
AcDbEntity
8
1
100
AcDbCircle
6
CONTINUOUS
62
5
10
794.212102
20
490.616535
40
0.780000
0
CIRCLE
5
362
100
AcDbEntity
8
1
100
AcDbCircle
6
CONTINUOUS
62
5
10
794.212102
20
490.616535
40
0.850000
0
POLYLINE
5
363
100
AcDbEntity
8
1
6
CONTINUOUS
62
5
100
AcDb2dPolyline
66
1
10
0.0
20
0.0
30
0.0
70
1
0
VERTEX
5
364
100
AcDbEntity
8
1
100
AcDbVertex
100
AcDb2dVertex
62
5
10
794.443043
20
490.216535
0
VERTEX
5
365
100
AcDbEntity
8
1
100
AcDbVertex
100
AcDb2dVertex
62
5
10
793.981162
20
490.216535
0
VERTEX
5
366
100
AcDbEntity
8
1
100
AcDbVertex
100
AcDb2dVertex
62
5
10
793.750222
20
490.616535
0
VERTEX
5
367
100
AcDbEntity
8
1
100
AcDbVertex
100
AcDb2dVertex
62
5
10
793.981162
20
491.016535
0
VERTEX
5
368
100
AcDbEntity
8
1
100
AcDbVertex
100
AcDb2dVertex
62
5
10
794.443043
20
491.016535
0
VERTEX
5
369
100
AcDbEntity
8
1
100
AcDbVertex
100
AcDb2dVertex
62
5
10
794.673983
20
490.616535
0
VERTEX
5
36a
100
AcDbEntity
8
1
100
AcDbVertex
100
AcDb2dVertex
62
5
10
794.443043
20
490.216535
0
SEQEND
5
36b
100
AcDbEntity
8
1
0
CIRCLE
5
36c
100
AcDbEntity
8
1
100
AcDbCircle
6
CONTINUOUS
62
5
10
798.712102
20
483.346662
40
0.640000
0
CIRCLE
5
36d
100
AcDbEntity
8
1
100
AcDbCircle
6
DOT2
62
5
10
798.712102
20
483.346662
40
0.800000
0
ARC
5
36e
100
AcDbEntity
8
1
100
AcDbCircle
6
CONTINUOUS
62
5
10
802.230503
20
492.576615
40
1.000000
100
AcDbArc
50
-30.000000
51
10.000000
0
ARC
5
36f
100
AcDbEntity
8
1
100
AcDbCircle
6
CONTINUOUS
62
5
10
801.111960
20
483.926246
40
0.400000
100
AcDbArc
50
179.993675
51
-92.999999
0
LINE
5
370
100
AcDbEntity
8
1
100
AcDbLine
6
CONTINUOUS
62
5
10
800.711960
20
483.926290
11
800.712071
21
484.926244
0
LINE
5
371
100
AcDbEntity
8
1
100
AcDbLine
6
CONTINUOUS
62
5
10
806.312136
20
483.253167
11
801.091026
21
483.526794
0
ARC
5
372
100
AcDbEntity
8
1
100
AcDbCircle
6
CONTINUOUS
62
5
10
803.212102
20
486.732546
40
1.000000
100
AcDbArc
50
-45.000000
51
0.000000
0
LINE
5
373
100
AcDbEntity
8
1
100
AcDbLine
6
CONTINUOUS
62
5
10
804.212102
20
486.732546
11
804.212102
21
494.276795
0
LINE
5
374
100
AcDbEntity
8
1
100
AcDbLine
6
CONTINUOUS
62
5
10
801.840432
20
483.946662
11
803.919209
21
486.025439
0
CIRCLE
5
375
100
AcDbEntity
8
1
100
AcDbCircle
6
CONTINUOUS
62
5
10
796.712102
20
494.946662
40
0.780000
0
CIRCLE
5
376
100
AcDbEntity
8
1
100
AcDbCircle
6
CONTINUOUS
62
5
10
796.712102
20
494.946662
40
0.850000
0
POLYLINE
5
377
100
AcDbEntity
8
1
6
CONTINUOUS
62
5
100
AcDb2dPolyline
66
1
10
0.0
20
0.0
30
0.0
70
1
0
VERTEX
5
378
100
AcDbEntity
8
1
100
AcDbVertex
100
AcDb2dVertex
62
5
10
797.173983
20
494.946662
0
VERTEX
5
379
100
AcDbEntity
8
1
100
AcDbVertex
100
AcDb2dVertex
62
5
10
796.943043
20
494.546662
0
VERTEX
5
37a
100
AcDbEntity
8
1
100
AcDbVertex
100
AcDb2dVertex
62
5
10
796.481162
20
494.546662
0
VERTEX
5
37b
100
AcDbEntity
8
1
100
AcDbVertex
100
AcDb2dVertex
62
5
10
796.250222
20
494.946662
0
VERTEX
5
37c
100
AcDbEntity
8
1
100
AcDbVertex
100
AcDb2dVertex
62
5
10
796.481162
20
495.346662
0
VERTEX
5
37d
100
AcDbEntity
8
1
100
AcDbVertex
100
AcDb2dVertex
62
5
10
796.943043
20
495.346662
0
VERTEX
5
37e
100
AcDbEntity
8
1
100
AcDbVertex
100
AcDb2dVertex
62
5
10
797.173983
20
494.946662
0
SEQEND
5
37f
100
AcDbEntity
8
1
0
CIRCLE
5
380
100
AcDbEntity
8
1
100
AcDbCircle
6
CONTINUOUS
62
5
10
800.712102
20
494.946662
40
0.790000
0
CIRCLE
5
381
100
AcDbEntity
8
1
100
AcDbCircle
6
CONTINUOUS
62
5
10
800.712102
20
494.946662
40
0.850000
0
POLYLINE
5
382
100
AcDbEntity
8
1
6
CONTINUOUS
62
5
100
AcDb2dPolyline
66
1
10
0.0
20
0.0
30
0.0
70
1
0
VERTEX
5
383
100
AcDbEntity
8
1
100
AcDbVertex
100
AcDb2dVertex
62
5
10
801.173983
20
494.946662
0
VERTEX
5
384
100
AcDbEntity
8
1
100
AcDbVertex
100
AcDb2dVertex
62
5
10
800.943043
20
494.546662
0
VERTEX
5
385
100
AcDbEntity
8
1
100
AcDbVertex
100
AcDb2dVertex
62
5
10
800.481162
20
494.546662
0
VERTEX
5
386
100
AcDbEntity
8
1
100
AcDbVertex
100
AcDb2dVertex
62
5
10
800.250222
20
494.946662
0
VERTEX
5
387
100
AcDbEntity
8
1
100
AcDbVertex
100
AcDb2dVertex
62
5
10
800.481162
20
495.346662
0
VERTEX
5
388
100
AcDbEntity
8
1
100
AcDbVertex
100
AcDb2dVertex
62
5
10
800.943043
20
495.346662
0
VERTEX
5
389
100
AcDbEntity
8
1
100
AcDbVertex
100
AcDb2dVertex
62
5
10
801.173983
20
494.946662
0
SEQEND
5
38a
100
AcDbEntity
8
1
0
LINE
5
38b
100
AcDbEntity
8
1
100
AcDbLine
6
DOT2
62
5
10
791.712102
20
512.446662
11
791.712102
21
477.946662
0
CIRCLE
5
38c
100
AcDbEntity
8
1
100
AcDbCircle
6
CONTINUOUS
62
5
10
789.212102
20
499.276789
40
0.780000
0
CIRCLE
5
38d
100
AcDbEntity
8
1
100
AcDbCircle
6
CONTINUOUS
62
5
10
789.212102
20
499.276789
40
0.850000
0
POLYLINE
5
38e
100
AcDbEntity
8
1
6
CONTINUOUS
62
5
100
AcDb2dPolyline
66
1
10
0.0
20
0.0
30
0.0
70
1
0
VERTEX
5
38f
100
AcDbEntity
8
1
100
AcDbVertex
100
AcDb2dVertex
62
5
10
788.981162
20
499.676789
0
VERTEX
5
390
100
AcDbEntity
8
1
100
AcDbVertex
100
AcDb2dVertex
62
5
10
789.443043
20
499.676789
0
VERTEX
5
391
100
AcDbEntity
8
1
100
AcDbVertex
100
AcDb2dVertex
62
5
10
789.673983
20
499.276789
0
VERTEX
5
392
100
AcDbEntity
8
1
100
AcDbVertex
100
AcDb2dVertex
62
5
10
789.443043
20
498.876789
0
VERTEX
5
393
100
AcDbEntity
8
1
100
AcDbVertex
100
AcDb2dVertex
62
5
10
788.981162
20
498.876789
0
VERTEX
5
394
100
AcDbEntity
8
1
100
AcDbVertex
100
AcDb2dVertex
62
5
10
788.750222
20
499.276789
0
VERTEX
5
395
100
AcDbEntity
8
1
100
AcDbVertex
100
AcDb2dVertex
62
5
10
788.981162
20
499.676789
0
SEQEND
5
396
100
AcDbEntity
8
1
0
CIRCLE
5
397
100
AcDbEntity
8
1
100
AcDbCircle
6
CONTINUOUS
62
5
10
787.212102
20
502.740891
40
0.790000
0
CIRCLE
5
398
100
AcDbEntity
8
1
100
AcDbCircle
6
CONTINUOUS
62
5
10
787.212102
20
502.740891
40
0.850000
0
POLYLINE
5
399
100
AcDbEntity
8
1
6
CONTINUOUS
62
5
100
AcDb2dPolyline
66
1
10
0.0
20
0.0
30
0.0
70
1
0
VERTEX
5
39a
100
AcDbEntity
8
1
100
AcDbVertex
100
AcDb2dVertex
62
5
10
786.981162
20
503.140891
0
VERTEX
5
39b
100
AcDbEntity
8
1
100
AcDbVertex
100
AcDb2dVertex
62
5
10
787.443043
20
503.140891
0
VERTEX
5
39c
100
AcDbEntity
8
1
100
AcDbVertex
100
AcDb2dVertex
62
5
10
787.673983
20
502.740891
0
VERTEX
5
39d
100
AcDbEntity
8
1
100
AcDbVertex
100
AcDb2dVertex
62
5
10
787.443043
20
502.340891
0
VERTEX
5
39e
100
AcDbEntity
8
1
100
AcDbVertex
100
AcDb2dVertex
62
5
10
786.981162
20
502.340891
0
VERTEX
5
39f
100
AcDbEntity
8
1
100
AcDbVertex
100
AcDb2dVertex
62
5
10
786.750222
20
502.740891
0
VERTEX
5
3a0
100
AcDbEntity
8
1
100
AcDbVertex
100
AcDb2dVertex
62
5
10
786.981162
20
503.140891
0
SEQEND
5
3a1
100
AcDbEntity
8
1
0
CIRCLE
5
3a2
100
AcDbEntity
8
1
100
AcDbCircle
6
CONTINUOUS
62
5
10
789.212102
20
490.616535
40
0.780000
0
CIRCLE
5
3a3
100
AcDbEntity
8
1
100
AcDbCircle
6
CONTINUOUS
62
5
10
789.212102
20
490.616535
40
0.850000
0
POLYLINE
5
3a4
100
AcDbEntity
8
1
6
CONTINUOUS
62
5
100
AcDb2dPolyline
66
1
10
0.0
20
0.0
30
0.0
70
1
0
VERTEX
5
3a5
100
AcDbEntity
8
1
100
AcDbVertex
100
AcDb2dVertex
62
5
10
788.981162
20
490.216535
0
VERTEX
5
3a6
100
AcDbEntity
8
1
100
AcDbVertex
100
AcDb2dVertex
62
5
10
788.750222
20
490.616535
0
VERTEX
5
3a7
100
AcDbEntity
8
1
100
AcDbVertex
100
AcDb2dVertex
62
5
10
788.981162
20
491.016535
0
VERTEX
5
3a8
100
AcDbEntity
8
1
100
AcDbVertex
100
AcDb2dVertex
62
5
10
789.443043
20
491.016535
0
VERTEX
5
3a9
100
AcDbEntity
8
1
100
AcDbVertex
100
AcDb2dVertex
62
5
10
789.673983
20
490.616535
0
VERTEX
5
3aa
100
AcDbEntity
8
1
100
AcDbVertex
100
AcDb2dVertex
62
5
10
789.443043
20
490.216535
0
VERTEX
5
3ab
100
AcDbEntity
8
1
100
AcDbVertex
100
AcDb2dVertex
62
5
10
788.981162
20
490.216535
0
SEQEND
5
3ac
100
AcDbEntity
8
1
0
CIRCLE
5
3ad
100
AcDbEntity
8
1
100
AcDbCircle
6
CONTINUOUS
62
5
10
787.212102
20
487.152433
40
0.790000
0
CIRCLE
5
3ae
100
AcDbEntity
8
1
100
AcDbCircle
6
CONTINUOUS
62
5
10
787.212102
20
487.152433
40
0.850000
0
POLYLINE
5
3af
100
AcDbEntity
8
1
6
CONTINUOUS
62
5
100
AcDb2dPolyline
66
1
10
0.0
20
0.0
30
0.0
70
1
0
VERTEX
5
3b0
100
AcDbEntity
8
1
100
AcDbVertex
100
AcDb2dVertex
62
5
10
786.981162
20
486.752433
0
VERTEX
5
3b1
100
AcDbEntity
8
1
100
AcDbVertex
100
AcDb2dVertex
62
5
10
786.750222
20
487.152433
0
VERTEX
5
3b2
100
AcDbEntity
8
1
100
AcDbVertex
100
AcDb2dVertex
62
5
10
786.981162
20
487.552433
0
VERTEX
5
3b3
100
AcDbEntity
8
1
100
AcDbVertex
100
AcDb2dVertex
62
5
10
787.443043
20
487.552433
0
VERTEX
5
3b4
100
AcDbEntity
8
1
100
AcDbVertex
100
AcDb2dVertex
62
5
10
787.673983
20
487.152433
0
VERTEX
5
3b5
100
AcDbEntity
8
1
100
AcDbVertex
100
AcDb2dVertex
62
5
10
787.443043
20
486.752433
0
VERTEX
5
3b6
100
AcDbEntity
8
1
100
AcDbVertex
100
AcDb2dVertex
62
5
10
786.981162
20
486.752433
0
SEQEND
5
3b7
100
AcDbEntity
8
1
0
ARC
5
3b8
100
AcDbEntity
8
1
100
AcDbCircle
6
CONTINUOUS
62
5
10
781.193701
20
492.576610
40
1.000000
100
AcDbArc
50
169.999998
51
-149.999999
0
LINE
5
3b9
100
AcDbEntity
8
1
100
AcDbLine
6
DOT2
62
5
10
780.208893
20
492.750258
11
780.131364
21
492.310569
0
CIRCLE
5
3ba
100
AcDbEntity
8
1
100
AcDbCircle
6
DOT2
62
5
10
784.712102
20
483.346662
40
0.800000
0
CIRCLE
5
3bb
100
AcDbEntity
8
1
100
AcDbCircle
6
CONTINUOUS
62
5
10
784.712102
20
483.346662
40
0.640000
0
LINE
5
3bc
100
AcDbEntity
8
1
100
AcDbLine
6
CONTINUOUS
62
5
10
779.112102
20
483.051489
11
779.112102
21
479.946662
0
ARC
5
3bd
100
AcDbEntity
8
1
100
AcDbCircle
6
CONTINUOUS
62
5
10
780.212102
20
486.732546
40
1.000000
100
AcDbArc
50
179.999998
51
-134.999999
0
LINE
5
3be
100
AcDbEntity
8
1
100
AcDbLine
6
CONTINUOUS
62
5
10
779.504996
20
486.025439
11
781.583772
21
483.946662
0
LINE
5
3bf
100
AcDbEntity
8
1
100
AcDbLine
6
CONTINUOUS
62
5
10
779.212102
20
494.276789
11
779.212102
21
486.732546
0
ARC
5
3c0
100
AcDbEntity
8
1
100
AcDbCircle
6
HIDDEN
62
5
10
778.112102
20
482.905047
40
0.400000
100
AcDbArc
50
92.999999
51
179.999998
0
LINE
5
3c1
100
AcDbEntity
8
1
100
AcDbLine
6
HIDDEN
62
5
10
777.712102
20
482.905047
11
777.712102
21
479.946662
0
ARC
5
3c2
100
AcDbEntity
8
1
100
AcDbCircle
6
CONTINUOUS
62
5
10
782.311978
20
483.926251
40
0.400000
100
AcDbArc
50
-86.999999
51
-0.006323
0
LINE
5
3c3
100
AcDbEntity
8
1
100
AcDbLine
6
CONTINUOUS
62
5
10
782.711978
20
483.926207
11
782.712144
21
484.926250
0
POLYLINE
5
3c4
100
AcDbEntity
8
1
6
CONTINUOUS
62
5
100
AcDb2dPolyline
66
1
10
0.0
20
0.0
30
0.0
70
0
0
VERTEX
5
3c5
100
AcDbEntity
8
1
100
AcDbVertex
100
AcDb2dVertex
62
5
10
777.111885
20
479.946662
0
VERTEX
5
3c6
100
AcDbEntity
8
1
100
AcDbVertex
100
AcDb2dVertex
62
5
10
777.111936
20
483.253180
0
VERTEX
5
3c7
100
AcDbEntity
8
1
100
AcDbVertex
100
AcDb2dVertex
62
5
10
782.332912
20
483.526799
0
SEQEND
5
3c8
100
AcDbEntity
8
1
0
CIRCLE
5
3c9
100
AcDbEntity
8
1
100
AcDbCircle
6
CONTINUOUS
62
5
10
782.712102
20
494.946662
40
0.790000
0
CIRCLE
5
3ca
100
AcDbEntity
8
1
100
AcDbCircle
6
CONTINUOUS
62
5
10
782.712102
20
494.946662
40
0.850000
0
POLYLINE
5
3cb
100
AcDbEntity
8
1
6
CONTINUOUS
62
5
100
AcDb2dPolyline
66
1
10
0.0
20
0.0
30
0.0
70
1
0
VERTEX
5
3cc
100
AcDbEntity
8
1
100
AcDbVertex
100
AcDb2dVertex
62
5
10
782.250222
20
494.946662
0
VERTEX
5
3cd
100
AcDbEntity
8
1
100
AcDbVertex
100
AcDb2dVertex
62
5
10
782.481162
20
495.346662
0
VERTEX
5
3ce
100
AcDbEntity
8
1
100
AcDbVertex
100
AcDb2dVertex
62
5
10
782.943043
20
495.346662
0
VERTEX
5
3cf
100
AcDbEntity
8
1
100
AcDbVertex
100
AcDb2dVertex
62
5
10
783.173983
20
494.946662
0
VERTEX
5
3d0
100
AcDbEntity
8
1
100
AcDbVertex
100
AcDb2dVertex
62
5
10
782.943043
20
494.546662
0
VERTEX
5
3d1
100
AcDbEntity
8
1
100
AcDbVertex
100
AcDb2dVertex
62
5
10
782.481162
20
494.546662
0
VERTEX
5
3d2
100
AcDbEntity
8
1
100
AcDbVertex
100
AcDb2dVertex
62
5
10
782.250222
20
494.946662
0
SEQEND
5
3d3
100
AcDbEntity
8
1
0
CIRCLE
5
3d4
100
AcDbEntity
8
1
100
AcDbCircle
6
CONTINUOUS
62
5
10
786.712102
20
494.946662
40
0.780000
0
CIRCLE
5
3d5
100
AcDbEntity
8
1
100
AcDbCircle
6
CONTINUOUS
62
5
10
786.712102
20
494.946662
40
0.850000
0
POLYLINE
5
3d6
100
AcDbEntity
8
1
6
CONTINUOUS
62
5
100
AcDb2dPolyline
66
1
10
0.0
20
0.0
30
0.0
70
1
0
VERTEX
5
3d7
100
AcDbEntity
8
1
100
AcDbVertex
100
AcDb2dVertex
62
5
10
786.250222
20
494.946662
0
VERTEX
5
3d8
100
AcDbEntity
8
1
100
AcDbVertex
100
AcDb2dVertex
62
5
10
786.481162
20
495.346662
0
VERTEX
5
3d9
100
AcDbEntity
8
1
100
AcDbVertex
100
AcDb2dVertex
62
5
10
786.943043
20
495.346662
0
VERTEX
5
3da
100
AcDbEntity
8
1
100
AcDbVertex
100
AcDb2dVertex
62
5
10
787.173983
20
494.946662
0
VERTEX
5
3db
100
AcDbEntity
8
1
100
AcDbVertex
100
AcDb2dVertex
62
5
10
786.943043
20
494.546662
0
VERTEX
5
3dc
100
AcDbEntity
8
1
100
AcDbVertex
100
AcDb2dVertex
62
5
10
786.481162
20
494.546662
0
VERTEX
5
3dd
100
AcDbEntity
8
1
100
AcDbVertex
100
AcDb2dVertex
62
5
10
786.250222
20
494.946662
0
SEQEND
5
3de
100
AcDbEntity
8
1
0
LINE
5
3df
100
AcDbEntity
8
1
100
AcDbLine
6
DASHED
62
5
10
790.512102
20
501.334932
11
790.512102
21
497.913141
0
LINE
5
3e0
100
AcDbEntity
8
1
100
AcDbLine
6
DASHED
62
5
10
791.047402
20
498.076865
11
791.047402
21
496.832974
0
LINE
5
3e1
100
AcDbEntity
8
1
100
AcDbLine
6
DASHED
62
5
10
790.912102
20
498.045049
11
790.912102
21
496.779692
0
POLYLINE
5
3e2
100
AcDbEntity
8
1
6
CONTINUOUS
62
5
100
AcDb2dPolyline
66
1
10
0.0
20
0.0
30
0.0
70
0
0
VERTEX
5
3e3
100
AcDbEntity
8
1
100
AcDbVertex
100
AcDb2dVertex
62
5
10
788.112102
20
513.746662
0
VERTEX
5
3e4
100
AcDbEntity
8
1
100
AcDbVertex
100
AcDb2dVertex
62
5
10
788.112102
20
511.946662
0
VERTEX
5
3e5
100
AcDbEntity
8
1
100
AcDbVertex
100
AcDb2dVertex
62
5
10
788.712102
20
511.346662
0
VERTEX
5
3e6
100
AcDbEntity
8
1
100
AcDbVertex
100
AcDb2dVertex
62
5
10
791.712102
20
511.346662
0
SEQEND
5
3e7
100
AcDbEntity
8
1
0
LINE
5
3e8
100
AcDbEntity
8
1
100
AcDbLine
6
CONTINUOUS
62
5
10
790.712102
20
511.346662
11
790.712102
21
510.646662
0
POLYLINE
5
3e9
100
AcDbEntity
8
1
6
CONTINUOUS
62
5
100
AcDb2dPolyline
66
1
10
0.0
20
0.0
30
0.0
70
0
0
VERTEX
5
3ea
100
AcDbEntity
8
1
100
AcDbVertex
100
AcDb2dVertex
62
5
10
803.215311
20
492.750263
0
VERTEX
5
3eb
100
AcDbEntity
8
1
100
AcDbVertex
100
AcDb2dVertex
62
5
10
800.712102
20
506.946662
0
VERTEX
5
3ec
100
AcDbEntity
8
1
100
AcDbVertex
100
AcDb2dVertex
62
5
10
782.712102
20
506.946662
0
VERTEX
5
3ed
100
AcDbEntity
8
1
100
AcDbVertex
100
AcDb2dVertex
62
5
10
780.208893
20
492.750258
0
SEQEND
5
3ee
100
AcDbEntity
8
1
0
ARC
5
3ef
100
AcDbEntity
8
1
100
AcDbCircle
6
CONTINUOUS
62
5
10
780.212102
20
494.276789
40
1.000000
100
AcDbArc
50
179.999998
51
-149.999999
0
LINE
5
3f0
100
AcDbEntity
8
1
100
AcDbLine
6
CONTINUOUS
62
5
10
779.346077
20
493.776789
11
782.578132
21
488.178706
0
ARC
5
3f1
100
AcDbEntity
8
1
100
AcDbCircle
6
CONTINUOUS
62
5
10
781.712106
20
487.678706
40
1.000000
100
AcDbArc
50
0.000795
51
30.000000
0
LINE
5
3f2
100
AcDbEntity
8
1
100
AcDbLine
6
CONTINUOUS
62
5
10
782.712106
20
487.678720
11
782.712144
21
484.926250
0
ARC
5
3f3
100
AcDbEntity
8
1
100
AcDbCircle
6
CONTINUOUS
62
5
10
782.312144
20
484.926250
40
0.400000
100
AcDbArc
50
-86.999999
51
0.000000
0
POLYLINE
5
3f4
100
AcDbEntity
8
1
6
CONTINUOUS
62
5
100
AcDb2dPolyline
66
1
10
0.0
20
0.0
30
0.0
70
0
0
VERTEX
5
3f5
100
AcDbEntity
8
1
100
AcDbVertex
100
AcDb2dVertex
62
5
10
782.333079
20
484.526798
0
VERTEX
5
3f6
100
AcDbEntity
8
1
100
AcDbVertex
100
AcDb2dVertex
62
5
10
782.212144
20
484.520460
0
VERTEX
5
3f7
100
AcDbEntity
8
1
100
AcDbVertex
100
AcDb2dVertex
62
5
10
782.212102
20
483.946662
0
VERTEX
5
3f8
100
AcDbEntity
8
1
100
AcDbVertex
100
AcDb2dVertex
62
5
10
777.111885
20
483.946662
0
VERTEX
5
3f9
100
AcDbEntity
8
1
100
AcDbVertex
100
AcDb2dVertex
62
5
10
777.111885
20
479.946662
0
VERTEX
5
3fa
100
AcDbEntity
8
1
100
AcDbVertex
100
AcDb2dVertex
62
5
10
790.512102
20
479.946662
0
VERTEX
5
3fb
100
AcDbEntity
8
1
100
AcDbVertex
100
AcDb2dVertex
62
5
10
790.512102
20
481.946662
0
VERTEX
5
3fc
100
AcDbEntity
8
1
100
AcDbVertex
100
AcDb2dVertex
62
5
10
792.912102
20
481.946662
0
VERTEX
5
3fd
100
AcDbEntity
8
1
100
AcDbVertex
100
AcDb2dVertex
62
5
10
792.912102
20
479.946662
0
VERTEX
5
3fe
100
AcDbEntity
8
1
100
AcDbVertex
100
AcDb2dVertex
62
5
10
806.311885
20
479.946662
0
VERTEX
5
3ff
100
AcDbEntity
8
1
100
AcDbVertex
100
AcDb2dVertex
62
5
10
806.311885
20
483.946662
0
VERTEX
5
400
100
AcDbEntity
8
1
100
AcDbVertex
100
AcDb2dVertex
62
5
10
801.212102
20
483.946662
0
VERTEX
5
401
100
AcDbEntity
8
1
100
AcDbVertex
100
AcDb2dVertex
62
5
10
801.212071
20
484.520455
0
VERTEX
5
402
100
AcDbEntity
8
1
100
AcDbVertex
100
AcDb2dVertex
62
5
10
801.091136
20
484.526793
0
SEQEND
5
403
100
AcDbEntity
8
1
0
ARC
5
404
100
AcDbEntity
8
1
100
AcDbCircle
6
CONTINUOUS
62
5
10
801.112071
20
484.926244
40
0.400000
100
AcDbArc
50
179.999998
51
-92.999999
0
LINE
5
405
100
AcDbEntity
8
1
100
AcDbLine
6
CONTINUOUS
62
5
10
800.712071
20
484.926244
11
800.712096
21
487.678708
0
ARC
5
406
100
AcDbEntity
8
1
100
AcDbCircle
6
CONTINUOUS
62
5
10
801.712096
20
487.678708
40
1.000000
100
AcDbArc
50
149.999999
51
179.999998
0
LINE
5
407
100
AcDbEntity
8
1
100
AcDbLine
6
CONTINUOUS
62
5
10
800.846071
20
488.178708
11
804.078128
21
493.776795
0
ARC
5
408
100
AcDbEntity
8
1
100
AcDbCircle
6
CONTINUOUS
62
5
10
803.212102
20
494.276795
40
1.000000
100
AcDbArc
50
-30.000000
51
0.000000
0
POLYLINE
5
409
100
AcDbEntity
8
1
6
CONTINUOUS
62
5
100
AcDb2dPolyline
66
1
10
0.0
20
0.0
30
0.0
70
0
0
VERTEX
5
40a
100
AcDbEntity
8
1
100
AcDbVertex
100
AcDb2dVertex
62
5
10
804.212102
20
494.276795
0
VERTEX
5
40b
100
AcDbEntity
8
1
100
AcDbVertex
100
AcDb2dVertex
62
5
10
804.212102
20
506.746662
0
VERTEX
5
40c
100
AcDbEntity
8
1
100
AcDbVertex
100
AcDb2dVertex
62
5
10
804.012102
20
506.946662
0
VERTEX
5
40d
100
AcDbEntity
8
1
100
AcDbVertex
100
AcDb2dVertex
62
5
10
800.212102
20
506.946662
0
SEQEND
5
40e
100
AcDbEntity
8
1
0
POLYLINE
5
40f
100
AcDbEntity
8
1
6
CONTINUOUS
62
5
100
AcDb2dPolyline
66
1
10
0.0
20
0.0
30
0.0
70
0
0
VERTEX
5
410
100
AcDbEntity
8
1
100
AcDbVertex
100
AcDb2dVertex
62
5
10
783.212102
20
506.946662
0
VERTEX
5
411
100
AcDbEntity
8
1
100
AcDbVertex
100
AcDb2dVertex
62
5
10
779.412102
20
506.946662
0
VERTEX
5
412
100
AcDbEntity
8
1
100
AcDbVertex
100
AcDb2dVertex
62
5
10
779.212102
20
506.746662
0
VERTEX
5
413
100
AcDbEntity
8
1
100
AcDbVertex
100
AcDb2dVertex
62
5
10
779.212102
20
494.276789
0
SEQEND
5
414
100
AcDbEntity
8
1
0
CIRCLE
5
415
100
AcDbEntity
8
1
100
AcDbCircle
6
CONTINUOUS
62
5
10
791.712102
20
494.946662
40
7.200000
0
CIRCLE
5
416
100
AcDbEntity
8
1
100
AcDbCircle
6
CONTINUOUS
62
5
10
791.712102
20
494.946662
40
6.500000
0
CIRCLE
5
417
100
AcDbEntity
8
1
100
AcDbCircle
6
CONTINUOUS
62
5
10
791.712102
20
494.946662
40
6.500000
0
CIRCLE
5
418
100
AcDbEntity
8
1
100
AcDbCircle
6
CONTINUOUS
62
5
10
791.712102
20
494.946662
40
2.000000
0
ARC
5
419
100
AcDbEntity
8
1
100
AcDbCircle
6
CONTINUOUS
62
5
10
791.712102
20
494.946662
40
2.200000
100
AcDbArc
50
134.999999
51
-45.000000
0
LINE
5
41a
100
AcDbEntity
8
1
100
AcDbLine
6
CONTINUOUS
62
5
10
793.267737
20
493.391027
11
793.267737
21
493.391027
0
ARC
5
41b
100
AcDbEntity
8
1
100
AcDbCircle
6
CONTINUOUS
62
5
10
791.712102
20
494.946662
40
2.200000
100
AcDbArc
50
-45.000000
51
134.999999
0
LINE
5
41c
100
AcDbEntity
8
1
100
AcDbLine
6
CONTINUOUS
62
5
10
790.156468
20
496.502297
11
790.156468
21
496.502297
0
CIRCLE
5
41d
100
AcDbEntity
8
1
100
AcDbCircle
6
CONTINUOUS
62
5
10
791.712102
20
494.946662
40
3.200000
0
CIRCLE
5
41e
100
AcDbEntity
8
1
100
AcDbCircle
6
CONTINUOUS
62
5
10
791.712102
20
494.946662
40
10.000000
0
CIRCLE
5
41f
100
AcDbEntity
8
1
100
AcDbCircle
6
CONTINUOUS
62
5
10
791.712102
20
494.946662
40
10.000000
0
LINE
5
420
100
AcDbEntity
8
1
100
AcDbLine
6
DOT2
62
5
10
777.212102
20
494.946662
11
806.212102
21
494.946662
0
LINE
5
421
100
AcDbEntity
8
1
100
AcDbLine
6
DOT2
62
5
10
806.236801
20
494.946662
11
776.552033
21
494.946662
0
LINE
5
422
100
AcDbEntity
8
1
100
AcDbLine
6
DOT2
62
5
10
806.236801
20
494.946662
11
776.552033
21
494.946662
0
LINE
5
423
100
AcDbEntity
8
1
100
AcDbLine
6
HIDDEN
62
5
10
777.711885
20
481.946662
11
805.712102
21
481.946662
0
ARC
5
424
100
AcDbEntity
8
1
100
AcDbCircle
6
CONTINUOUS
62
5
10
780.212102
20
506.532448
40
1.200000
100
AcDbArc
50
134.999999
51
-179.999998
0
LINE
5
425
100
AcDbEntity
8
1
100
AcDbLine
6
CONTINUOUS
62
5
10
779.363574
20
507.380977
11
782.277788
21
510.295190
0
ARC
5
426
100
AcDbEntity
8
1
100
AcDbCircle
6
CONTINUOUS
62
5
10
783.126316
20
509.446662
40
1.200000
100
AcDbArc
50
90.000001
51
134.999998
0
LINE
5
427
100
AcDbEntity
8
1
100
AcDbLine
6
CONTINUOUS
62
5
10
783.126316
20
510.646662
11
800.297361
21
510.646662
0
ARC
5
428
100
AcDbEntity
8
1
100
AcDbCircle
6
CONTINUOUS
62
5
10
800.297889
20
509.446662
40
1.200000
100
AcDbArc
50
45.000000
51
90.025195
0
LINE
5
429
100
AcDbEntity
8
1
100
AcDbLine
6
CONTINUOUS
62
5
10
801.146417
20
510.295190
11
804.060631
21
507.380977
0
ARC
5
42a
100
AcDbEntity
8
1
100
AcDbCircle
6
CONTINUOUS
62
5
10
803.212102
20
506.532448
40
1.200000
100
AcDbArc
50
0.000000
51
44.999999
0
POLYLINE
5
42b
100
AcDbEntity
8
1
6
CONTINUOUS
62
5
100
AcDb2dPolyline
66
1
10
0.0
20
0.0
30
0.0
70
0
0
VERTEX
5
42c
100
AcDbEntity
8
1
100
AcDbVertex
100
AcDb2dVertex
62
5
10
804.412102
20
506.532448
0
VERTEX
5
42d
100
AcDbEntity
8
1
100
AcDbVertex
100
AcDb2dVertex
62
5
10
804.412102
20
497.946662
0
VERTEX
5
42e
100
AcDbEntity
8
1
100
AcDbVertex
100
AcDb2dVertex
62
5
10
804.212102
20
497.946662
0
VERTEX
5
42f
100
AcDbEntity
8
1
100
AcDbVertex
100
AcDb2dVertex
62
5
10
804.212102
20
506.532211
0
SEQEND
5
430
100
AcDbEntity
8
1
0
POLYLINE
5
431
100
AcDbEntity
8
1
6
CONTINUOUS
62
5
100
AcDb2dPolyline
66
1
10
0.0
20
0.0
30
0.0
70
0
0
VERTEX
5
432
100
AcDbEntity
8
1
100
AcDbVertex
100
AcDb2dVertex
62
5
10
779.212102
20
506.532448
0
VERTEX
5
433
100
AcDbEntity
8
1
100
AcDbVertex
100
AcDb2dVertex
62
5
10
779.212102
20
497.946662
0
VERTEX
5
434
100
AcDbEntity
8
1
100
AcDbVertex
100
AcDb2dVertex
62
5
10
779.012102
20
497.946662
0
VERTEX
5
435
100
AcDbEntity
8
1
100
AcDbVertex
100
AcDb2dVertex
62
5
10
779.012102
20
506.532448
0
SEQEND
5
436
100
AcDbEntity
8
1
0
POLYLINE
5
437
100
AcDbEntity
8
1
6
CONTINUOUS
62
5
100
AcDb2dPolyline
66
1
10
0.0
20
0.0
30
0.0
70
0
0
VERTEX
5
438
100
AcDbEntity
8
1
100
AcDbVertex
100
AcDb2dVertex
62
5
10
783.112102
20
506.946662
0
VERTEX
5
439
100
AcDbEntity
8
1
100
AcDbVertex
100
AcDb2dVertex
62
5
10
783.112102
20
507.146662
0
VERTEX
5
43a
100
AcDbEntity
8
1
100
AcDbVertex
100
AcDb2dVertex
62
5
10
800.312102
20
507.146662
0
VERTEX
5
43b
100
AcDbEntity
8
1
100
AcDbVertex
100
AcDb2dVertex
62
5
10
800.312102
20
506.946662
0
SEQEND
5
43c
100
AcDbEntity
8
1
0
LINE
5
43d
100
AcDbEntity
8
1
100
AcDbLine
6
CONTINUOUS
62
5
10
782.912102
20
506.946662
11
800.512102
21
506.946662
0
ARC
5
43e
100
AcDbEntity
8
1
100
AcDbCircle
6
CONTINUOUS
62
5
10
800.412102
20
510.346662
40
0.300000
100
AcDbArc
50
-0.000001
51
89.999998
0
LINE
5
43f
100
AcDbEntity
8
1
100
AcDbLine
6
CONTINUOUS
62
5
10
800.412102
20
510.646662
11
783.012102
21
510.646662
0
ARC
5
440
100
AcDbEntity
8
1
100
AcDbCircle
6
CONTINUOUS
62
5
10
783.012102
20
510.346662
40
0.300000
100
AcDbArc
50
89.999998
51
179.999998
0
POLYLINE
5
441
100
AcDbEntity
8
1
6
CONTINUOUS
62
5
100
AcDb2dPolyline
66
1
10
0.0
20
0.0
30
0.0
70
0
0
VERTEX
5
442
100
AcDbEntity
8
1
100
AcDbVertex
100
AcDb2dVertex
62
5
10
782.712102
20
510.346662
0
VERTEX
5
443
100
AcDbEntity
8
1
100
AcDbVertex
100
AcDb2dVertex
62
5
10
782.712102
20
506.946662
0
VERTEX
5
444
100
AcDbEntity
8
1
100
AcDbVertex
100
AcDb2dVertex
62
5
10
782.912102
20
506.946662
0
SEQEND
5
445
100
AcDbEntity
8
1
0
POLYLINE
5
446
100
AcDbEntity
8
1
6
CONTINUOUS
62
5
100
AcDb2dPolyline
66
1
10
0.0
20
0.0
30
0.0
70
0
0
VERTEX
5
447
100
AcDbEntity
8
1
100
AcDbVertex
100
AcDb2dVertex
62
5
10
800.512102
20
506.946662
0
VERTEX
5
448
100
AcDbEntity
8
1
100
AcDbVertex
100
AcDb2dVertex
62
5
10
800.712102
20
506.946662
0
VERTEX
5
449
100
AcDbEntity
8
1
100
AcDbVertex
100
AcDb2dVertex
62
5
10
800.712102
20
510.346662
0
SEQEND
5
44a
100
AcDbEntity
8
1
0
LINE
5
44b
100
AcDbEntity
8
1
100
AcDbLine
6
CONTINUOUS
62
5
10
788.112102
20
511.946662
11
795.312102
21
511.946662
0
ARC
5
44c
100
AcDbEntity
8
1
100
AcDbCircle
6
CONTINUOUS
62
5
10
803.212102
20
526.532448
40
1.000000
100
AcDbArc
50
0.000000
51
45.000000
0
LINE
5
44d
100
AcDbEntity
8
1
100
AcDbLine
6
CONTINUOUS
62
5
10
803.919209
20
527.239555
11
803.307538
21
527.851226
0
LINE
5
44e
100
AcDbEntity
8
1
100
AcDbLine
6
CONTINUOUS
62
5
10
804.212102
20
507.195773
11
804.212102
21
526.532448
0
ARC
5
44f
100
AcDbEntity
8
1
100
AcDbCircle
6
CONTINUOUS
62
5
10
798.076063
20
514.982701
40
1.300000
100
AcDbArc
50
89.999999
51
179.999998
0
POLYLINE
5
450
100
AcDbEntity
8
1
6
CONTINUOUS
62
5
100
AcDb2dPolyline
66
1
10
0.0
20
0.0
30
0.0
70
0
0
VERTEX
5
451
100
AcDbEntity
8
1
100
AcDbVertex
100
AcDb2dVertex
62
5
10
796.776063
20
514.982701
0
VERTEX
5
452
100
AcDbEntity
8
1
100
AcDbVertex
100
AcDb2dVertex
62
5
10
796.776063
20
514.146662
0
VERTEX
5
453
100
AcDbEntity
8
1
100
AcDbVertex
100
AcDb2dVertex
62
5
10
796.376063
20
513.746662
0
VERTEX
5
454
100
AcDbEntity
8
1
100
AcDbVertex
100
AcDb2dVertex
62
5
10
795.800613
20
513.746662
0
SEQEND
5
455
100
AcDbEntity
8
1
0
POLYLINE
5
456
100
AcDbEntity
8
1
6
CONTINUOUS
62
5
100
AcDb2dPolyline
66
1
10
0.0
20
0.0
30
0.0
70
0
0
VERTEX
5
457
100
AcDbEntity
8
1
100
AcDbVertex
100
AcDb2dVertex
62
5
10
799.312102
20
517.596010
0
VERTEX
5
458
100
AcDbEntity
8
1
100
AcDbVertex
100
AcDb2dVertex
62
5
10
799.312102
20
516.682701
0
VERTEX
5
459
100
AcDbEntity
8
1
100
AcDbVertex
100
AcDb2dVertex
62
5
10
798.912102
20
516.282701
0
VERTEX
5
45a
100
AcDbEntity
8
1
100
AcDbVertex
100
AcDb2dVertex
62
5
10
798.076063
20
516.282701
0
SEQEND
5
45b
100
AcDbEntity
8
1
0
CIRCLE
5
45c
100
AcDbEntity
8
1
100
AcDbCircle
6
CONTINUOUS
62
5
10
798.076063
20
514.982701
40
0.790000
0
CIRCLE
5
45d
100
AcDbEntity
8
1
100
AcDbCircle
6
CONTINUOUS
62
5
10
798.076063
20
514.982701
40
0.850000
0
POLYLINE
5
45e
100
AcDbEntity
8
1
6
CONTINUOUS
62
5
100
AcDb2dPolyline
66
1
10
0.0
20
0.0
30
0.0
70
1
0
VERTEX
5
45f
100
AcDbEntity
8
1
100
AcDbVertex
100
AcDb2dVertex
62
5
10
798.076063
20
515.444581
0
VERTEX
5
460
100
AcDbEntity
8
1
100
AcDbVertex
100
AcDb2dVertex
62
5
10
798.476063
20
515.213641
0
VERTEX
5
461
100
AcDbEntity
8
1
100
AcDbVertex
100
AcDb2dVertex
62
5
10
798.476063
20
514.751761
0
VERTEX
5
462
100
AcDbEntity
8
1
100
AcDbVertex
100
AcDb2dVertex
62
5
10
798.076063
20
514.520821
0
VERTEX
5
463
100
AcDbEntity
8
1
100
AcDbVertex
100
AcDb2dVertex
62
5
10
797.676063
20
514.751761
0
VERTEX
5
464
100
AcDbEntity
8
1
100
AcDbVertex
100
AcDb2dVertex
62
5
10
797.676063
20
515.213641
0
VERTEX
5
465
100
AcDbEntity
8
1
100
AcDbVertex
100
AcDb2dVertex
62
5
10
798.076063
20
515.444581
0
SEQEND
5
466
100
AcDbEntity
8
1
0
LINE
5
467
100
AcDbEntity
8
1
100
AcDbLine
6
DOT2
62
5
10
791.712102
20
530.171266
11
791.712102
21
481.849930
0
ARC
5
468
100
AcDbEntity
8
1
100
AcDbCircle
6
CONTINUOUS
62
5
10
780.212102
20
526.532448
40
1.000000
100
AcDbArc
50
134.999999
51
179.999998
0
LINE
5
469
100
AcDbEntity
8
1
100
AcDbLine
6
CONTINUOUS
62
5
10
779.212102
20
526.532448
11
779.212102
21
507.195773
0
LINE
5
46a
100
AcDbEntity
8
1
100
AcDbLine
6
CONTINUOUS
62
5
10
780.116667
20
527.851226
11
779.504996
21
527.239555
0
LINE
5
46b
100
AcDbEntity
8
1
100
AcDbLine
6
DOT2
62
5
10
791.712102
20
529.816563
11
791.712102
21
511.067359
0
CIRCLE
5
46c
100
AcDbEntity
8
1
100
AcDbCircle
6
CONTINUOUS
62
5
10
785.348141
20
514.982701
40
0.790000
0
CIRCLE
5
46d
100
AcDbEntity
8
1
100
AcDbCircle
6
CONTINUOUS
62
5
10
785.348141
20
514.982701
40
0.850000
0
POLYLINE
5
46e
100
AcDbEntity
8
1
6
CONTINUOUS
62
5
100
AcDb2dPolyline
66
1
10
0.0
20
0.0
30
0.0
70
1
0
VERTEX
5
46f
100
AcDbEntity
8
1
100
AcDbVertex
100
AcDb2dVertex
62
5
10
785.348141
20
515.444581
0
VERTEX
5
470
100
AcDbEntity
8
1
100
AcDbVertex
100
AcDb2dVertex
62
5
10
785.748141
20
515.213641
0
VERTEX
5
471
100
AcDbEntity
8
1
100
AcDbVertex
100
AcDb2dVertex
62
5
10
785.748141
20
514.751761
0
VERTEX
5
472
100
AcDbEntity
8
1
100
AcDbVertex
100
AcDb2dVertex
62
5
10
785.348141
20
514.520821
0
VERTEX
5
473
100
AcDbEntity
8
1
100
AcDbVertex
100
AcDb2dVertex
62
5
10
784.948141
20
514.751761
0
VERTEX
5
474
100
AcDbEntity
8
1
100
AcDbVertex
100
AcDb2dVertex
62
5
10
784.948141
20
515.213641
0
VERTEX
5
475
100
AcDbEntity
8
1
100
AcDbVertex
100
AcDb2dVertex
62
5
10
785.348141
20
515.444581
0
SEQEND
5
476
100
AcDbEntity
8
1
0
CIRCLE
5
477
100
AcDbEntity
8
1
100
AcDbCircle
6
CONTINUOUS
62
5
10
787.312102
20
514.746662
40
0.510000
0
CIRCLE
5
478
100
AcDbEntity
8
1
100
AcDbCircle
6
CONTINUOUS
62
5
10
787.312102
20
514.746662
40
0.550000
0
POLYLINE
5
479
100
AcDbEntity
8
1
6
CONTINUOUS
62
5
100
AcDb2dPolyline
66
1
10
0.0
20
0.0
30
0.0
70
1
0
VERTEX
5
47a
100
AcDbEntity
8
1
100
AcDbVertex
100
AcDb2dVertex
62
5
10
787.600778
20
514.746662
0
VERTEX
5
47b
100
AcDbEntity
8
1
100
AcDbVertex
100
AcDb2dVertex
62
5
10
787.456440
20
514.996662
0
VERTEX
5
47c
100
AcDbEntity
8
1
100
AcDbVertex
100
AcDb2dVertex
62
5
10
787.167765
20
514.996662
0
VERTEX
5
47d
100
AcDbEntity
8
1
100
AcDbVertex
100
AcDb2dVertex
62
5
10
787.023427
20
514.746662
0
VERTEX
5
47e
100
AcDbEntity
8
1
100
AcDbVertex
100
AcDb2dVertex
62
5
10
787.167765
20
514.496662
0
VERTEX
5
47f
100
AcDbEntity
8
1
100
AcDbVertex
100
AcDb2dVertex
62
5
10
787.456440
20
514.496662
0
VERTEX
5
480
100
AcDbEntity
8
1
100
AcDbVertex
100
AcDb2dVertex
62
5
10
787.600778
20
514.746662
0
SEQEND
5
481
100
AcDbEntity
8
1
0
ARC
5
482
100
AcDbEntity
8
1
100
AcDbCircle
6
CONTINUOUS
62
5
10
785.348141
20
514.982701
40
1.300000
100
AcDbArc
50
0.000000
51
89.999999
0
POLYLINE
5
483
100
AcDbEntity
8
1
6
CONTINUOUS
62
5
100
AcDb2dPolyline
66
1
10
0.0
20
0.0
30
0.0
70
0
0
VERTEX
5
484
100
AcDbEntity
8
1
100
AcDbVertex
100
AcDb2dVertex
62
5
10
785.348141
20
516.282701
0
VERTEX
5
485
100
AcDbEntity
8
1
100
AcDbVertex
100
AcDb2dVertex
62
5
10
784.512102
20
516.282701
0
VERTEX
5
486
100
AcDbEntity
8
1
100
AcDbVertex
100
AcDb2dVertex
62
5
10
784.112102
20
516.682701
0
VERTEX
5
487
100
AcDbEntity
8
1
100
AcDbVertex
100
AcDb2dVertex
62
5
10
784.112102
20
517.258152
0
SEQEND
5
488
100
AcDbEntity
8
1
0
POLYLINE
5
489
100
AcDbEntity
8
1
6
CONTINUOUS
62
5
100
AcDb2dPolyline
66
1
10
0.0
20
0.0
30
0.0
70
0
0
VERTEX
5
48a
100
AcDbEntity
8
1
100
AcDbVertex
100
AcDb2dVertex
62
5
10
787.961451
20
513.746662
0
VERTEX
5
48b
100
AcDbEntity
8
1
100
AcDbVertex
100
AcDb2dVertex
62
5
10
787.048141
20
513.746662
0
VERTEX
5
48c
100
AcDbEntity
8
1
100
AcDbVertex
100
AcDb2dVertex
62
5
10
786.648141
20
514.146662
0
VERTEX
5
48d
100
AcDbEntity
8
1
100
AcDbVertex
100
AcDb2dVertex
62
5
10
786.648141
20
514.982701
0
SEQEND
5
48e
100
AcDbEntity
8
1
0
ARC
5
48f
100
AcDbEntity
8
1
100
AcDbCircle
6
CONTINUOUS
62
5
10
791.712102
20
521.346662
40
10.000000
100
AcDbArc
50
130.535801
51
139.464197
0
POLYLINE
5
490
100
AcDbEntity
8
1
6
CONTINUOUS
62
5
100
AcDb2dPolyline
66
1
10
0.0
20
0.0
30
0.0
70
0
0
VERTEX
5
491
100
AcDbEntity
8
1
100
AcDbVertex
100
AcDb2dVertex
62
5
10
784.112102
20
527.845893
0
VERTEX
5
492
100
AcDbEntity
8
1
100
AcDbVertex
100
AcDb2dVertex
62
5
10
784.112102
20
521.346662
0
VERTEX
5
493
100
AcDbEntity
8
1
100
AcDbVertex
100
AcDb2dVertex
62
5
10
784.112102
20
514.847431
0
SEQEND
5
494
100
AcDbEntity
8
1
0
ARC
5
495
100
AcDbEntity
8
1
100
AcDbCircle
6
CONTINUOUS
62
5
10
791.712102
20
521.346662
40
10.000000
100
AcDbArc
50
-139.464197
51
-130.535801
0
POLYLINE
5
496
100
AcDbEntity
8
1
6
CONTINUOUS
62
5
100
AcDb2dPolyline
66
1
10
0.0
20
0.0
30
0.0
70
0
0
VERTEX
5
497
100
AcDbEntity
8
1
100
AcDbVertex
100
AcDb2dVertex
62
5
10
785.212872
20
513.746662
0
VERTEX
5
498
100
AcDbEntity
8
1
100
AcDbVertex
100
AcDb2dVertex
62
5
10
791.712102
20
513.746662
0
VERTEX
5
499
100
AcDbEntity
8
1
100
AcDbVertex
100
AcDb2dVertex
62
5
10
798.211333
20
513.746662
0
SEQEND
5
49a
100
AcDbEntity
8
1
0
ARC
5
49b
100
AcDbEntity
8
1
100
AcDbCircle
6
CONTINUOUS
62
5
10
791.712102
20
521.346662
40
10.000000
100
AcDbArc
50
-49.464197
51
-40.535802
0
POLYLINE
5
49c
100
AcDbEntity
8
1
6
CONTINUOUS
62
5
100
AcDb2dPolyline
66
1
10
0.0
20
0.0
30
0.0
70
0
0
VERTEX
5
49d
100
AcDbEntity
8
1
100
AcDbVertex
100
AcDb2dVertex
62
5
10
799.312102
20
514.847431
0
VERTEX
5
49e
100
AcDbEntity
8
1
100
AcDbVertex
100
AcDb2dVertex
62
5
10
799.312102
20
521.346662
0
VERTEX
5
49f
100
AcDbEntity
8
1
100
AcDbVertex
100
AcDb2dVertex
62
5
10
799.312102
20
527.845893
0
SEQEND
5
4a0
100
AcDbEntity
8
1
0
ARC
5
4a1
100
AcDbEntity
8
1
100
AcDbCircle
6
CONTINUOUS
62
5
10
791.712102
20
521.346662
40
10.000000
100
AcDbArc
50
40.535802
51
49.464197
0
POLYLINE
5
4a2
100
AcDbEntity
8
1
6
CONTINUOUS
62
5
100
AcDb2dPolyline
66
1
10
0.0
20
0.0
30
0.0
70
0
0
VERTEX
5
4a3
100
AcDbEntity
8
1
100
AcDbVertex
100
AcDb2dVertex
62
5
10
798.211333
20
528.946662
0
VERTEX
5
4a4
100
AcDbEntity
8
1
100
AcDbVertex
100
AcDb2dVertex
62
5
10
791.712102
20
528.946662
0
VERTEX
5
4a5
100
AcDbEntity
8
1
100
AcDbVertex
100
AcDb2dVertex
62
5
10
785.212872
20
528.946662
0
SEQEND
5
4a6
100
AcDbEntity
8
1
0
ARC
5
4a7
100
AcDbEntity
8
1
100
AcDbCircle
6
CONTINUOUS
62
5
10
800.712102
20
516.346662
40
3.000000
100
AcDbArc
50
-89.999999
51
0.000000
0
LINE
5
4a8
100
AcDbEntity
8
1
100
AcDbLine
6
CONTINUOUS
62
5
10
803.712102
20
516.346662
11
803.712102
21
526.346662
0
ARC
5
4a9
100
AcDbEntity
8
1
100
AcDbCircle
6
CONTINUOUS
62
5
10
800.712102
20
526.346662
40
3.000000
100
AcDbArc
50
0.000000
51
89.999999
0
LINE
5
4aa
100
AcDbEntity
8
1
100
AcDbLine
6
CONTINUOUS
62
5
10
800.712102
20
529.346662
11
782.712102
21
529.346662
0
ARC
5
4ab
100
AcDbEntity
8
1
100
AcDbCircle
6
CONTINUOUS
62
5
10
782.712102
20
526.346662
40
3.000000
100
AcDbArc
50
89.999999
51
179.999998
0
LINE
5
4ac
100
AcDbEntity
8
1
100
AcDbLine
6
CONTINUOUS
62
5
10
779.712102
20
526.346662
11
779.712102
21
516.346662
0
ARC
5
4ad
100
AcDbEntity
8
1
100
AcDbCircle
6
CONTINUOUS
62
5
10
782.712102
20
516.346662
40
3.000000
100
AcDbArc
50
179.999998
51
-89.999999
0
LINE
5
4ae
100
AcDbEntity
8
1
100
AcDbLine
6
CONTINUOUS
62
5
10
782.712102
20
513.346662
11
788.112102
21
513.346662
0
LINE
5
4af
100
AcDbEntity
8
1
100
AcDbLine
6
CONTINUOUS
62
5
10
795.312102
20
513.346662
11
800.712102
21
513.346662
0
ARC
5
4b0
100
AcDbEntity
8
1
100
AcDbCircle
6
CONTINUOUS
62
5
10
898.296667
20
483.346662
40
0.400000
100
AcDbArc
50
-89.999999
51
0.000000
0
POLYLINE
5
4b1
100
AcDbEntity
8
1
6
CONTINUOUS
62
5
100
AcDb2dPolyline
66
1
10
0.0
20
0.0
30
0.0
70
0
0
VERTEX
5
4b2
100
AcDbEntity
8
1
100
AcDbVertex
100
AcDb2dVertex
62
5
10
898.696667
20
483.346662
0
VERTEX
5
4b3
100
AcDbEntity
8
1
100
AcDbVertex
100
AcDb2dVertex
62
5
10
898.696667
20
483.946662
0
VERTEX
5
4b4
100
AcDbEntity
8
1
100
AcDbVertex
100
AcDb2dVertex
62
5
10
908.696667
20
483.946662
0
VERTEX
5
4b5
100
AcDbEntity
8
1
100
AcDbVertex
100
AcDb2dVertex
62
5
10
908.696667
20
483.346662
0
SEQEND
5
4b6
100
AcDbEntity
8
1
0
ARC
5
4b7
100
AcDbEntity
8
1
100
AcDbCircle
6
CONTINUOUS
62
5
10
909.096667
20
483.346662
40
0.400000
100
AcDbArc
50
179.999998
51
-89.999999
0
LINE
5
4b8
100
AcDbEntity
8
1
100
AcDbLine
6
CONTINUOUS
62
5
10
909.096667
20
482.946662
11
911.351764
21
482.946662
0
LINE
5
4b9
100
AcDbEntity
8
1
100
AcDbLine
6
CONTINUOUS
62
5
10
856.696449
20
482.946662
11
858.296667
21
482.946662
0
ARC
5
4ba
100
AcDbEntity
8
1
100
AcDbCircle
6
CONTINUOUS
62
5
10
858.296667
20
483.346662
40
0.400000
100
AcDbArc
50
-89.999999
51
0.000000
0
POLYLINE
5
4bb
100
AcDbEntity
8
1
6
CONTINUOUS
62
5
100
AcDb2dPolyline
66
1
10
0.0
20
0.0
30
0.0
70
0
0
VERTEX
5
4bc
100
AcDbEntity
8
1
100
AcDbVertex
100
AcDb2dVertex
62
5
10
858.696667
20
483.346662
0
VERTEX
5
4bd
100
AcDbEntity
8
1
100
AcDbVertex
100
AcDb2dVertex
62
5
10
858.696667
20
483.946662
0
VERTEX
5
4be
100
AcDbEntity
8
1
100
AcDbVertex
100
AcDb2dVertex
62
5
10
868.696667
20
483.946662
0
VERTEX
5
4bf
100
AcDbEntity
8
1
100
AcDbVertex
100
AcDb2dVertex
62
5
10
868.696667
20
483.346662
0
SEQEND
5
4c0
100
AcDbEntity
8
1
0
ARC
5
4c1
100
AcDbEntity
8
1
100
AcDbCircle
6
CONTINUOUS
62
5
10
869.096667
20
483.346662
40
0.400000
100
AcDbArc
50
179.999998
51
-89.999999
0
LINE
5
4c2
100
AcDbEntity
8
1
100
AcDbLine
6
CONTINUOUS
62
5
10
869.096667
20
482.946662
11
898.296667
21
482.946662
0
POLYLINE
5
4c3
100
AcDbEntity
8
1
6
CONTINUOUS
62
5
100
AcDb2dPolyline
66
1
10
0.0
20
0.0
30
0.0
70
0
0
VERTEX
5
4c4
100
AcDbEntity
8
1
100
AcDbVertex
100
AcDb2dVertex
62
5
10
880.695917
20
510.446546
0
VERTEX
5
4c5
100
AcDbEntity
8
1
100
AcDbVertex
100
AcDb2dVertex
62
5
10
882.695917
20
510.446546
0
VERTEX
5
4c6
100
AcDbEntity
8
1
100
AcDbVertex
100
AcDb2dVertex
62
5
10
882.695917
20
510.646546
0
VERTEX
5
4c7
100
AcDbEntity
8
1
100
AcDbVertex
100
AcDb2dVertex
62
5
10
880.681888
20
510.646546
0
VERTEX
5
4c8
100
AcDbEntity
8
1
100
AcDbVertex
100
AcDb2dVertex
62
5
10
860.681001
20
507.146546
0
VERTEX
5
4c9
100
AcDbEntity
8
1
100
AcDbVertex
100
AcDb2dVertex
62
5
10
857.695917
20
507.146546
0
VERTEX
5
4ca
100
AcDbEntity
8
1
100
AcDbVertex
100
AcDb2dVertex
62
5
10
857.695917
20
506.946546
0
VERTEX
5
4cb
100
AcDbEntity
8
1
100
AcDbVertex
100
AcDb2dVertex
62
5
10
860.695917
20
506.946546
0
SEQEND
5
4cc
100
AcDbEntity
8
1
0
POLYLINE
5
4cd
100
AcDbEntity
8
1
6
CONTINUOUS
62
5
100
AcDb2dPolyline
66
1
10
0.0
20
0.0
30
0.0
70
0
0
VERTEX
5
4ce
100
AcDbEntity
8
1
100
AcDbVertex
100
AcDb2dVertex
62
5
10
860.731373
20
506.946546
0
VERTEX
5
4cf
100
AcDbEntity
8
1
100
AcDbVertex
100
AcDb2dVertex
62
5
10
880.695917
20
506.946546
0
VERTEX
5
4d0
100
AcDbEntity
8
1
100
AcDbVertex
100
AcDb2dVertex
62
5
10
880.695917
20
510.646546
0
SEQEND
5
4d1
100
AcDbEntity
8
1
0
ARC
5
4d2
100
AcDbEntity
8
1
100
AcDbCircle
6
CONTINUOUS
62
5
10
856.096449
20
580.137308
40
0.600000
100
AcDbArc
50
-89.999999
51
0.000000
0
POLYLINE
5
4d3
100
AcDbEntity
8
1
6
CONTINUOUS
62
5
100
AcDb2dPolyline
66
1
10
0.0
20
0.0
30
0.0
70
0
0
VERTEX
5
4d4
100
AcDbEntity
8
1
100
AcDbVertex
100
AcDb2dVertex
62
5
10
856.096449
20
579.537308
0
VERTEX
5
4d5
100
AcDbEntity
8
1
100
AcDbVertex
100
AcDb2dVertex
62
5
10
855.696449
20
579.537308
0
VERTEX
5
4d6
100
AcDbEntity
8
1
100
AcDbVertex
100
AcDb2dVertex
62
5
10
855.696449
20
559.537308
0
VERTEX
5
4d7
100
AcDbEntity
8
1
100
AcDbVertex
100
AcDb2dVertex
62
5
10
856.296449
20
559.537308
0
SEQEND
5
4d8
100
AcDbEntity
8
1
0
ARC
5
4d9
100
AcDbEntity
8
1
100
AcDbCircle
6
CONTINUOUS
62
5
10
856.296449
20
559.137308
40
0.400000
100
AcDbArc
50
0.000000
51
89.999999
0
POLYLINE
5
4da
100
AcDbEntity
8
1
6
CONTINUOUS
62
5
100
AcDb2dPolyline
66
1
10
0.0
20
0.0
30
0.0
70
0
0
VERTEX
5
4db
100
AcDbEntity
8
1
100
AcDbVertex
100
AcDb2dVertex
62
5
10
856.696449
20
559.137308
0
VERTEX
5
4dc
100
AcDbEntity
8
1
100
AcDbVertex
100
AcDb2dVertex
62
5
10
856.696449
20
558.025208
0
VERTEX
5
4dd
100
AcDbEntity
8
1
100
AcDbVertex
100
AcDb2dVertex
62
5
10
860.696449
20
558.025208
0
VERTEX
5
4de
100
AcDbEntity
8
1
100
AcDbVertex
100
AcDb2dVertex
62
5
10
882.695367
20
557.037356
0
SEQEND
5
4df
100
AcDbEntity
8
1
0
POLYLINE
5
4e0
100
AcDbEntity
8
1
6
CONTINUOUS
62
5
100
AcDb2dPolyline
66
1
10
0.0
20
0.0
30
0.0
70
0
0
VERTEX
5
4e1
100
AcDbEntity
8
1
100
AcDbVertex
100
AcDb2dVertex
62
5
10
882.696449
20
582.037308
0
VERTEX
5
4e2
100
AcDbEntity
8
1
100
AcDbVertex
100
AcDb2dVertex
62
5
10
860.696449
20
581.049408
0
VERTEX
5
4e3
100
AcDbEntity
8
1
100
AcDbVertex
100
AcDb2dVertex
62
5
10
856.696449
20
581.049405
0
VERTEX
5
4e4
100
AcDbEntity
8
1
100
AcDbVertex
100
AcDb2dVertex
62
5
10
856.696449
20
580.137308
0
SEQEND
5
4e5
100
AcDbEntity
8
1
0
ARC
5
4e6
100
AcDbEntity
8
1
100
AcDbCircle
6
CONTINUOUS
62
5
10
857.096449
20
578.137307
40
0.400000
100
AcDbArc
50
89.999999
51
179.999998
0
LINE
5
4e7
100
AcDbEntity
8
1
100
AcDbLine
6
CONTINUOUS
62
5
10
856.696449
20
578.137307
11
856.696449
21
560.937308
0
ARC
5
4e8
100
AcDbEntity
8
1
100
AcDbCircle
6
CONTINUOUS
62
5
10
857.096449
20
560.937308
40
0.400000
100
AcDbArc
50
179.999998
51
-89.999999
0
POLYLINE
5
4e9
100
AcDbEntity
8
1
6
CONTINUOUS
62
5
100
AcDb2dPolyline
66
1
10
0.0
20
0.0
30
0.0
70
0
0
VERTEX
5
4ea
100
AcDbEntity
8
1
100
AcDbVertex
100
AcDb2dVertex
62
5
10
857.096449
20
560.537308
0
VERTEX
5
4eb
100
AcDbEntity
8
1
100
AcDbVertex
100
AcDb2dVertex
62
5
10
860.696449
20
560.537308
0
VERTEX
5
4ec
100
AcDbEntity
8
1
100
AcDbVertex
100
AcDb2dVertex
62
5
10
882.695372
20
557.037479
0
SEQEND
5
4ed
100
AcDbEntity
8
1
0
POLYLINE
5
4ee
100
AcDbEntity
8
1
6
CONTINUOUS
62
5
100
AcDb2dPolyline
66
1
10
0.0
20
0.0
30
0.0
70
0
0
VERTEX
5
4ef
100
AcDbEntity
8
1
100
AcDbVertex
100
AcDb2dVertex
62
5
10
882.696449
20
582.037308
0
VERTEX
5
4f0
100
AcDbEntity
8
1
100
AcDbVertex
100
AcDb2dVertex
62
5
10
860.696449
20
578.537305
0
VERTEX
5
4f1
100
AcDbEntity
8
1
100
AcDbVertex
100
AcDb2dVertex
62
5
10
857.096449
20
578.537307
0
SEQEND
5
4f2
100
AcDbEntity
8
1
0
ARC
5
4f3
100
AcDbEntity
8
1
100
AcDbCircle
6
CONTINUOUS
62
5
10
858.096449
20
561.337308
40
0.400000
100
AcDbArc
50
179.999998
51
-89.999999
0
LINE
5
4f4
100
AcDbEntity
8
1
100
AcDbLine
6
CONTINUOUS
62
5
10
857.696449
20
561.337308
11
857.696449
21
577.737308
0
ARC
5
4f5
100
AcDbEntity
8
1
100
AcDbCircle
6
CONTINUOUS
62
5
10
858.096449
20
577.737308
40
0.400000
100
AcDbArc
50
89.999999
51
179.999998
0
POLYLINE
5
4f6
100
AcDbEntity
8
1
6
CONTINUOUS
62
5
100
AcDb2dPolyline
66
1
10
0.0
20
0.0
30
0.0
70
0
0
VERTEX
5
4f7
100
AcDbEntity
8
1
100
AcDbVertex
100
AcDb2dVertex
62
5
10
858.096449
20
578.137308
0
VERTEX
5
4f8
100
AcDbEntity
8
1
100
AcDbVertex
100
AcDb2dVertex
62
5
10
860.696449
20
578.137308
0
VERTEX
5
4f9
100
AcDbEntity
8
1
100
AcDbVertex
100
AcDb2dVertex
62
5
10
860.696449
20
578.537308
0
VERTEX
5
4fa
100
AcDbEntity
8
1
100
AcDbVertex
100
AcDb2dVertex
62
5
10
880.696449
20
578.537308
0
VERTEX
5
4fb
100
AcDbEntity
8
1
100
AcDbVertex
100
AcDb2dVertex
62
5
10
880.696449
20
578.137308
0
VERTEX
5
4fc
100
AcDbEntity
8
1
100
AcDbVertex
100
AcDb2dVertex
62
5
10
882.296449
20
578.137308
0
SEQEND
5
4fd
100
AcDbEntity
8
1
0
ARC
5
4fe
100
AcDbEntity
8
1
100
AcDbCircle
6
CONTINUOUS
62
5
10
882.296449
20
577.737308
40
0.400000
100
AcDbArc
50
0.000000
51
89.999999
0
LINE
5
4ff
100
AcDbEntity
8
1
100
AcDbLine
6
CONTINUOUS
62
5
10
882.696449
20
577.737308
11
882.696449
21
571.086501
0
ARC
5
500
100
AcDbEntity
8
1
100
AcDbCircle
6
CONTINUOUS
62
5
10
882.296449
20
571.086501
40
0.400000
100
AcDbArc
50
-75.522487
51
0.000000
0
ARC
5
501
100
AcDbEntity
8
1
100
AcDbCircle
6
CONTINUOUS
62
5
10
882.696449
20
569.537308
40
1.200000
100
AcDbArc
50
104.477511
51
-104.477511
0
ARC
5
502
100
AcDbEntity
8
1
100
AcDbCircle
6
CONTINUOUS
62
5
10
882.296449
20
567.988114
40
0.400000
100
AcDbArc
50
0.000000
51
75.522487
0
LINE
5
503
100
AcDbEntity
8
1
100
AcDbLine
6
CONTINUOUS
62
5
10
882.696449
20
567.988114
11
882.696449
21
561.337308
0
ARC
5
504
100
AcDbEntity
8
1
100
AcDbCircle
6
CONTINUOUS
62
5
10
882.296449
20
561.337308
40
0.400000
100
AcDbArc
50
-89.999999
51
0.000000
0
POLYLINE
5
505
100
AcDbEntity
8
1
6
CONTINUOUS
62
5
100
AcDb2dPolyline
66
1
10
0.0
20
0.0
30
0.0
70
0
0
VERTEX
5
506
100
AcDbEntity
8
1
100
AcDbVertex
100
AcDb2dVertex
62
5
10
882.296449
20
560.937308
0
VERTEX
5
507
100
AcDbEntity
8
1
100
AcDbVertex
100
AcDb2dVertex
62
5
10
880.696449
20
560.937308
0
VERTEX
5
508
100
AcDbEntity
8
1
100
AcDbVertex
100
AcDb2dVertex
62
5
10
880.696449
20
560.537308
0
VERTEX
5
509
100
AcDbEntity
8
1
100
AcDbVertex
100
AcDb2dVertex
62
5
10
860.696449
20
560.537308
0
VERTEX
5
50a
100
AcDbEntity
8
1
100
AcDbVertex
100
AcDb2dVertex
62
5
10
860.696449
20
560.937308
0
VERTEX
5
50b
100
AcDbEntity
8
1
100
AcDbVertex
100
AcDb2dVertex
62
5
10
858.096449
20
560.937308
0
SEQEND
5
50c
100
AcDbEntity
8
1
0
LINE
5
50d
100
AcDbEntity
8
1
100
AcDbLine
6
DASHED
62
5
10
860.696449
20
560.737308
11
880.696449
21
560.737308
0
LINE
5
50e
100
AcDbEntity
8
1
100
AcDbLine
6
DASHED
62
5
10
860.696449
20
578.337308
11
880.696449
21
578.337308
0
ARC
5
50f
100
AcDbEntity
8
1
100
AcDbCircle
6
CONTINUOUS
62
5
10
898.296449
20
583.937308
40
0.400000
100
AcDbArc
50
-89.999999
51
0.000000
0
LINE
5
510
100
AcDbEntity
8
1
100
AcDbLine
6
CONTINUOUS
62
5
10
898.296449
20
583.537308
11
870.096449
21
583.537308
0
ARC
5
511
100
AcDbEntity
8
1
100
AcDbCircle
6
CONTINUOUS
62
5
10
870.096449
20
583.937308
40
0.400000
100
AcDbArc
50
179.999998
51
-89.999999
0
POLYLINE
5
512
100
AcDbEntity
8
1
6
CONTINUOUS
62
5
100
AcDb2dPolyline
66
1
10
0.0
20
0.0
30
0.0
70
0
0
VERTEX
5
513
100
AcDbEntity
8
1
100
AcDbVertex
100
AcDb2dVertex
62
5
10
869.696449
20
583.937308
0
VERTEX
5
514
100
AcDbEntity
8
1
100
AcDbVertex
100
AcDb2dVertex
62
5
10
869.696449
20
584.137308
0
VERTEX
5
515
100
AcDbEntity
8
1
100
AcDbVertex
100
AcDb2dVertex
62
5
10
864.396449
20
584.137305
0
VERTEX
5
516
100
AcDbEntity
8
1
100
AcDbVertex
100
AcDb2dVertex
62
5
10
863.996449
20
583.737305
0
VERTEX
5
517
100
AcDbEntity
8
1
100
AcDbVertex
100
AcDb2dVertex
62
5
10
863.996449
20
581.197593
0
SEQEND
5
518
100
AcDbEntity
8
1
0
POLYLINE
5
519
100
AcDbEntity
8
1
6
CONTINUOUS
62
5
100
AcDb2dPolyline
66
1
10
0.0
20
0.0
30
0.0
70
0
0
VERTEX
5
51a
100
AcDbEntity
8
1
100
AcDbVertex
100
AcDb2dVertex
62
5
10
861.396449
20
581.080841
0
VERTEX
5
51b
100
AcDbEntity
8
1
100
AcDbVertex
100
AcDb2dVertex
62
5
10
861.396449
20
583.737305
0
VERTEX
5
51c
100
AcDbEntity
8
1
100
AcDbVertex
100
AcDb2dVertex
62
5
10
860.996449
20
584.137305
0
VERTEX
5
51d
100
AcDbEntity
8
1
100
AcDbVertex
100
AcDb2dVertex
62
5
10
858.696449
20
584.137305
0
VERTEX
5
51e
100
AcDbEntity
8
1
100
AcDbVertex
100
AcDb2dVertex
62
5
10
856.696449
20
582.137305
0
VERTEX
5
51f
100
AcDbEntity
8
1
100
AcDbVertex
100
AcDb2dVertex
62
5
10
856.696449
20
581.049405
0
SEQEND
5
520
100
AcDbEntity
8
1
0
POLYLINE
5
521
100
AcDbEntity
8
1
6
CONTINUOUS
62
5
100
AcDb2dPolyline
66
1
10
0.0
20
0.0
30
0.0
70
0
0
VERTEX
5
522
100
AcDbEntity
8
1
100
AcDbVertex
100
AcDb2dVertex
62
5
10
910.796449
20
582.037308
0
VERTEX
5
523
100
AcDbEntity
8
1
100
AcDbVertex
100
AcDb2dVertex
62
5
10
908.696449
20
584.137308
0
VERTEX
5
524
100
AcDbEntity
8
1
100
AcDbVertex
100
AcDb2dVertex
62
5
10
904.396449
20
584.137308
0
VERTEX
5
525
100
AcDbEntity
8
1
100
AcDbVertex
100
AcDb2dVertex
62
5
10
903.996449
20
583.737308
0
VERTEX
5
526
100
AcDbEntity
8
1
100
AcDbVertex
100
AcDb2dVertex
62
5
10
903.996449
20
582.037308
0
SEQEND
5
527
100
AcDbEntity
8
1
0
POLYLINE
5
528
100
AcDbEntity
8
1
6
CONTINUOUS
62
5
100
AcDb2dPolyline
66
1
10
0.0
20
0.0
30
0.0
70
0
0
VERTEX
5
529
100
AcDbEntity
8
1
100
AcDbVertex
100
AcDb2dVertex
62
5
10
901.396449
20
582.037308
0
VERTEX
5
52a
100
AcDbEntity
8
1
100
AcDbVertex
100
AcDb2dVertex
62
5
10
901.396449
20
583.737308
0
VERTEX
5
52b
100
AcDbEntity
8
1
100
AcDbVertex
100
AcDb2dVertex
62
5
10
900.996449
20
584.137308
0
VERTEX
5
52c
100
AcDbEntity
8
1
100
AcDbVertex
100
AcDb2dVertex
62
5
10
898.696449
20
584.137308
0
VERTEX
5
52d
100
AcDbEntity
8
1
100
AcDbVertex
100
AcDb2dVertex
62
5
10
898.696449
20
583.937308
0
SEQEND
5
52e
100
AcDbEntity
8
1
0
ARC
5
52f
100
AcDbEntity
8
1
100
AcDbCircle
6
CONTINUOUS
62
5
10
898.296446
20
555.137308
40
0.400000
100
AcDbArc
50
0.000000
51
89.999999
0
LINE
5
530
100
AcDbEntity
8
1
100
AcDbLine
6
CONTINUOUS
62
5
10
898.296446
20
555.537308
11
870.096449
21
555.537308
0
ARC
5
531
100
AcDbEntity
8
1
100
AcDbCircle
6
CONTINUOUS
62
5
10
870.096449
20
555.137308
40
0.400000
100
AcDbArc
50
89.999999
51
179.999998
0
POLYLINE
5
532
100
AcDbEntity
8
1
6
CONTINUOUS
62
5
100
AcDb2dPolyline
66
1
10
0.0
20
0.0
30
0.0
70
0
0
VERTEX
5
533
100
AcDbEntity
8
1
100
AcDbVertex
100
AcDb2dVertex
62
5
10
869.696449
20
555.137308
0
VERTEX
5
534
100
AcDbEntity
8
1
100
AcDbVertex
100
AcDb2dVertex
62
5
10
869.696449
20
554.937308
0
VERTEX
5
535
100
AcDbEntity
8
1
100
AcDbVertex
100
AcDb2dVertex
62
5
10
864.396422
20
554.937308
0
VERTEX
5
536
100
AcDbEntity
8
1
100
AcDbVertex
100
AcDb2dVertex
62
5
10
863.996422
20
555.337308
0
VERTEX
5
537
100
AcDbEntity
8
1
100
AcDbVertex
100
AcDb2dVertex
62
5
10
863.996422
20
557.877024
0
SEQEND
5
538
100
AcDbEntity
8
1
0
POLYLINE
5
539
100
AcDbEntity
8
1
6
CONTINUOUS
62
5
100
AcDb2dPolyline
66
1
10
0.0
20
0.0
30
0.0
70
0
0
VERTEX
5
53a
100
AcDbEntity
8
1
100
AcDbVertex
100
AcDb2dVertex
62
5
10
861.396422
20
557.993776
0
VERTEX
5
53b
100
AcDbEntity
8
1
100
AcDbVertex
100
AcDb2dVertex
62
5
10
861.396422
20
555.337308
0
VERTEX
5
53c
100
AcDbEntity
8
1
100
AcDbVertex
100
AcDb2dVertex
62
5
10
860.996422
20
554.937308
0
VERTEX
5
53d
100
AcDbEntity
8
1
100
AcDbVertex
100
AcDb2dVertex
62
5
10
858.696449
20
554.937308
0
VERTEX
5
53e
100
AcDbEntity
8
1
100
AcDbVertex
100
AcDb2dVertex
62
5
10
858.110662
20
555.523094
0
VERTEX
5
53f
100
AcDbEntity
8
1
100
AcDbVertex
100
AcDb2dVertex
62
5
10
858.110662
20
555.523094
0
VERTEX
5
540
100
AcDbEntity
8
1
100
AcDbVertex
100
AcDb2dVertex
62
5
10
856.696449
20
556.937308
0
VERTEX
5
541
100
AcDbEntity
8
1
100
AcDbVertex
100
AcDb2dVertex
62
5
10
856.696449
20
558.025208
0
SEQEND
5
542
100
AcDbEntity
8
1
0
POLYLINE
5
543
100
AcDbEntity
8
1
6
CONTINUOUS
62
5
100
AcDb2dPolyline
66
1
10
0.0
20
0.0
30
0.0
70
0
0
VERTEX
5
544
100
AcDbEntity
8
1
100
AcDbVertex
100
AcDb2dVertex
62
5
10
910.796449
20
557.037308
0
VERTEX
5
545
100
AcDbEntity
8
1
100
AcDbVertex
100
AcDb2dVertex
62
5
10
908.696449
20
554.937308
0
VERTEX
5
546
100
AcDbEntity
8
1
100
AcDbVertex
100
AcDb2dVertex
62
5
10
904.396446
20
554.937308
0
VERTEX
5
547
100
AcDbEntity
8
1
100
AcDbVertex
100
AcDb2dVertex
62
5
10
903.996446
20
555.337308
0
VERTEX
5
548
100
AcDbEntity
8
1
100
AcDbVertex
100
AcDb2dVertex
62
5
10
903.996446
20
557.037308
0
SEQEND
5
549
100
AcDbEntity
8
1
0
POLYLINE
5
54a
100
AcDbEntity
8
1
6
CONTINUOUS
62
5
100
AcDb2dPolyline
66
1
10
0.0
20
0.0
30
0.0
70
0
0
VERTEX
5
54b
100
AcDbEntity
8
1
100
AcDbVertex
100
AcDb2dVertex
62
5
10
901.396446
20
557.037308
0
VERTEX
5
54c
100
AcDbEntity
8
1
100
AcDbVertex
100
AcDb2dVertex
62
5
10
901.396446
20
555.337308
0
VERTEX
5
54d
100
AcDbEntity
8
1
100
AcDbVertex
100
AcDb2dVertex
62
5
10
900.996446
20
554.937308
0
VERTEX
5
54e
100
AcDbEntity
8
1
100
AcDbVertex
100
AcDb2dVertex
62
5
10
898.696446
20
554.937308
0
VERTEX
5
54f
100
AcDbEntity
8
1
100
AcDbVertex
100
AcDb2dVertex
62
5
10
898.696446
20
555.137308
0
SEQEND
5
550
100
AcDbEntity
8
1
0
POLYLINE
5
551
100
AcDbEntity
8
1
6
HIDDEN
62
5
100
AcDb2dPolyline
66
1
10
0.0
20
0.0
30
0.0
70
0
0
VERTEX
5
552
100
AcDbEntity
8
1
100
AcDbVertex
100
AcDb2dVertex
62
5
10
859.696449
20
584.117475
0
VERTEX
5
553
100
AcDbEntity
8
1
100
AcDbVertex
100
AcDb2dVertex
62
5
10
859.429169
20
579.017475
0
VERTEX
5
554
100
AcDbEntity
8
1
100
AcDbVertex
100
AcDb2dVertex
62
5
10
868.963728
20
579.017478
0
VERTEX
5
555
100
AcDbEntity
8
1
100
AcDbVertex
100
AcDb2dVertex
62
5
10
868.696449
20
584.117478
0
SEQEND
5
556
100
AcDbEntity
8
1
0
LINE
5
557
100
AcDbEntity
8
1
100
AcDbLine
6
CONTINUOUS
62
5
10
859.534619
20
581.049403
11
859.696449
21
584.137305
0
LINE
5
558
100
AcDbEntity
8
1
100
AcDbLine
6
CONTINUOUS
62
5
10
868.696449
20
584.137308
11
868.839116
21
581.415050
0
POLYLINE
5
559
100
AcDbEntity
8
1
6
HIDDEN
62
5
100
AcDb2dPolyline
66
1
10
0.0
20
0.0
30
0.0
70
0
0
VERTEX
5
55a
100
AcDbEntity
8
1
100
AcDbVertex
100
AcDb2dVertex
62
5
10
860.996422
20
554.917478
0
VERTEX
5
55b
100
AcDbEntity
8
1
100
AcDbVertex
100
AcDb2dVertex
62
5
10
859.696449
20
554.917478
0
VERTEX
5
55c
100
AcDbEntity
8
1
100
AcDbVertex
100
AcDb2dVertex
62
5
10
859.429169
20
560.017478
0
VERTEX
5
55d
100
AcDbEntity
8
1
100
AcDbVertex
100
AcDb2dVertex
62
5
10
868.963728
20
560.017478
0
VERTEX
5
55e
100
AcDbEntity
8
1
100
AcDbVertex
100
AcDb2dVertex
62
5
10
868.696449
20
554.917478
0
VERTEX
5
55f
100
AcDbEntity
8
1
100
AcDbVertex
100
AcDb2dVertex
62
5
10
864.396422
20
554.917478
0
SEQEND
5
560
100
AcDbEntity
8
1
0
LINE
5
561
100
AcDbEntity
8
1
100
AcDbLine
6
CONTINUOUS
62
5
10
859.534619
20
558.025208
11
859.696449
21
554.937308
0
LINE
5
562
100
AcDbEntity
8
1
100
AcDbLine
6
CONTINUOUS
62
5
10
868.696449
20
554.937308
11
868.839116
21
557.659565
0
ARC
5
563
100
AcDbEntity
8
1
100
AcDbCircle
6
CONTINUOUS
62
5
10
856.096449
20
484.346662
40
0.600000
100
AcDbArc
50
0.000000
51
89.999999
0
POLYLINE
5
564
100
AcDbEntity
8
1
6
CONTINUOUS
62
5
100
AcDb2dPolyline
66
1
10
0.0
20
0.0
30
0.0
70
0
0
VERTEX
5
565
100
AcDbEntity
8
1
100
AcDbVertex
100
AcDb2dVertex
62
5
10
856.096449
20
484.946662
0
VERTEX
5
566
100
AcDbEntity
8
1
100
AcDbVertex
100
AcDb2dVertex
62
5
10
855.696667
20
484.946662
0
VERTEX
5
567
100
AcDbEntity
8
1
100
AcDbVertex
100
AcDb2dVertex
62
5
10
855.696667
20
504.946662
0
VERTEX
5
568
100
AcDbEntity
8
1
100
AcDbVertex
100
AcDb2dVertex
62
5
10
856.096449
20
504.946662
0
SEQEND
5
569
100
AcDbEntity
8
1
0
ARC
5
56a
100
AcDbEntity
8
1
100
AcDbCircle
6
CONTINUOUS
62
5
10
856.096449
20
505.546662
40
0.600000
100
AcDbArc
50
-89.999999
51
0.000000
0
POLYLINE
5
56b
100
AcDbEntity
8
1
6
CONTINUOUS
62
5
100
AcDb2dPolyline
66
1
10
0.0
20
0.0
30
0.0
70
0
0
VERTEX
5
56c
100
AcDbEntity
8
1
100
AcDbVertex
100
AcDb2dVertex
62
5
10
856.696449
20
505.546662
0
VERTEX
5
56d
100
AcDbEntity
8
1
100
AcDbVertex
100
AcDb2dVertex
62
5
10
856.696449
20
506.546662
0
VERTEX
5
56e
100
AcDbEntity
8
1
100
AcDbVertex
100
AcDb2dVertex
62
5
10
857.096449
20
506.946662
0
VERTEX
5
56f
100
AcDbEntity
8
1
100
AcDbVertex
100
AcDb2dVertex
62
5
10
857.695917
20
506.946662
0
SEQEND
5
570
100
AcDbEntity
8
1
0
POLYLINE
5
571
100
AcDbEntity
8
1
6
CONTINUOUS
62
5
100
AcDb2dPolyline
66
1
10
0.0
20
0.0
30
0.0
70
0
0
VERTEX
5
572
100
AcDbEntity
8
1
100
AcDbVertex
100
AcDb2dVertex
62
5
10
927.696667
20
510.446662
0
VERTEX
5
573
100
AcDbEntity
8
1
100
AcDbVertex
100
AcDb2dVertex
62
5
10
927.696667
20
482.946662
0
VERTEX
5
574
100
AcDbEntity
8
1
100
AcDbVertex
100
AcDb2dVertex
62
5
10
927.696667
20
482.346662
0
VERTEX
5
575
100
AcDbEntity
8
1
100
AcDbVertex
100
AcDb2dVertex
62
5
10
917.168337
20
482.346662
0
VERTEX
5
576
100
AcDbEntity
8
1
100
AcDbVertex
100
AcDb2dVertex
62
5
10
917.168337
20
479.946662
0
VERTEX
5
577
100
AcDbEntity
8
1
100
AcDbVertex
100
AcDb2dVertex
62
5
10
887.896667
20
479.946662
0
VERTEX
5
578
100
AcDbEntity
8
1
100
AcDbVertex
100
AcDb2dVertex
62
5
10
887.896667
20
481.946662
0
VERTEX
5
579
100
AcDbEntity
8
1
100
AcDbVertex
100
AcDb2dVertex
62
5
10
885.496667
20
481.946662
0
VERTEX
5
57a
100
AcDbEntity
8
1
100
AcDbVertex
100
AcDb2dVertex
62
5
10
885.496667
20
479.946662
0
VERTEX
5
57b
100
AcDbEntity
8
1
100
AcDbVertex
100
AcDb2dVertex
62
5
10
856.696449
20
479.946662
0
VERTEX
5
57c
100
AcDbEntity
8
1
100
AcDbVertex
100
AcDb2dVertex
62
5
10
856.696449
20
484.346662
0
SEQEND
5
57d
100
AcDbEntity
8
1
0
POLYLINE
5
57e
100
AcDbEntity
8
1
6
CONTINUOUS
62
5
100
AcDb2dPolyline
66
1
10
0.0
20
0.0
30
0.0
70
0
0
VERTEX
5
57f
100
AcDbEntity
8
1
100
AcDbVertex
100
AcDb2dVertex
62
5
10
927.696667
20
494.410764
0
VERTEX
5
580
100
AcDbEntity
8
1
100
AcDbVertex
100
AcDb2dVertex
62
5
10
882.696667
20
494.410764
0
VERTEX
5
581
100
AcDbEntity
8
1
100
AcDbVertex
100
AcDb2dVertex
62
5
10
882.252406
20
494.376211
0
SEQEND
5
582
100
AcDbEntity
8
1
0
POLYLINE
5
583
100
AcDbEntity
8
1
6
CONTINUOUS
62
5
100
AcDb2dPolyline
66
1
10
0.0
20
0.0
30
0.0
70
0
0
VERTEX
5
584
100
AcDbEntity
8
1
100
AcDbVertex
100
AcDb2dVertex
62
5
10
880.241823
20
494.219838
0
VERTEX
5
585
100
AcDbEntity
8
1
100
AcDbVertex
100
AcDb2dVertex
62
5
10
860.696667
20
492.699709
0
VERTEX
5
586
100
AcDbEntity
8
1
100
AcDbVertex
100
AcDb2dVertex
62
5
10
856.696449
20
492.699709
0
SEQEND
5
587
100
AcDbEntity
8
1
0
LINE
5
588
100
AcDbEntity
8
1
100
AcDbLine
6
CONTINUOUS
62
5
10
856.703480
20
488.348586
11
927.696667
21
488.348586
0
LINE
5
589
100
AcDbEntity
8
1
100
AcDbLine
6
DOT2
62
5
10
854.096449
20
569.537308
11
931.822235
21
569.537308
0
LINE
5
58a
100
AcDbEntity
8
1
100
AcDbLine
6
DOT2
62
5
10
845.847038
20
494.946662
11
946.216347
21
494.946662
0
LINE
5
58b
100
AcDbEntity
8
1
100
AcDbLine
6
DOT2
62
3
10
945.696667
20
529.546662
11
945.696667
21
536.946662
0
LINE
5
58c
100
AcDbEntity
8
1
100
AcDbLine
6
DOT2
62
3
10
891.896667
20
521.346662
11
891.896667
21
536.946662
0
POLYLINE
5
58d
100
AcDbEntity
8
1
6
DOT2
62
3
100
AcDb2dPolyline
66
1
10
0.0
20
0.0
30
0.0
70
0
0
VERTEX
5
58e
100
AcDbEntity
8
1
100
AcDbVertex
100
AcDb2dVertex
62
3
10
918.796885
20
535.946662
0
VERTEX
5
58f
100
AcDbEntity
8
1
100
AcDbVertex
100
AcDb2dVertex
62
3
10
891.896667
20
535.946662
0
VERTEX
5
590
100
AcDbEntity
8
1
100
AcDbVertex
100
AcDb2dVertex
62
3
10
894.944667
20
536.454662
0
VERTEX
5
591
100
AcDbEntity
8
1
100
AcDbVertex
100
AcDb2dVertex
62
3
10
894.944667
20
535.438662
0
VERTEX
5
592
100
AcDbEntity
8
1
100
AcDbVertex
100
AcDb2dVertex
62
3
10
891.896667
20
535.946662
0
VERTEX
5
593
100
AcDbEntity
8
1
100
AcDbVertex
100
AcDb2dVertex
62
3
10
894.944667
20
536.200662
0
VERTEX
5
594
100
AcDbEntity
8
1
100
AcDbVertex
100
AcDb2dVertex
62
3
10
894.944667
20
535.692662
0
VERTEX
5
595
100
AcDbEntity
8
1
100
AcDbVertex
100
AcDb2dVertex
62
3
10
891.896667
20
535.946662
0
SEQEND
5
596
100
AcDbEntity
8
1
0
POLYLINE
5
597
100
AcDbEntity
8
1
6
DOT2
62
3
100
AcDb2dPolyline
66
1
10
0.0
20
0.0
30
0.0
70
0
0
VERTEX
5
598
100
AcDbEntity
8
1
100
AcDbVertex
100
AcDb2dVertex
62
3
10
918.796885
20
535.946662
0
VERTEX
5
599
100
AcDbEntity
8
1
100
AcDbVertex
100
AcDb2dVertex
62
3
10
945.696667
20
535.946662
0
VERTEX
5
59a
100
AcDbEntity
8
1
100
AcDbVertex
100
AcDb2dVertex
62
3
10
942.648667
20
535.438662
0
VERTEX
5
59b
100
AcDbEntity
8
1
100
AcDbVertex
100
AcDb2dVertex
62
3
10
942.648667
20
536.454662
0
VERTEX
5
59c
100
AcDbEntity
8
1
100
AcDbVertex
100
AcDb2dVertex
62
3
10
945.696667
20
535.946662
0
VERTEX
5
59d
100
AcDbEntity
8
1
100
AcDbVertex
100
AcDb2dVertex
62
3
10
942.648667
20
535.692662
0
VERTEX
5
59e
100
AcDbEntity
8
1
100
AcDbVertex
100
AcDb2dVertex
62
3
10
942.648667
20
536.200662
0
VERTEX
5
59f
100
AcDbEntity
8
1
100
AcDbVertex
100
AcDb2dVertex
62
3
10
945.696667
20
535.946662
0
SEQEND
5
5a0
100
AcDbEntity
8
1
0
TEXT
5
5a1
100
AcDbEntity
8
1
62
3
100
AcDbText
10
913.911765
20
536.647062
40
3.200000
41
0.825
1
(269)
7
STANDARD
72
0
100
AcDbText
0
LINE
5
5a2
100
AcDbEntity
8
1
100
AcDbLine
6
DOT2
62
3
10
885.497102
20
481.946662
11
879.258406
21
481.946662
0
POLYLINE
5
5a3
100
AcDbEntity
8
1
6
DOT2
62
3
100
AcDb2dPolyline
66
1
10
0.0
20
0.0
30
0.0
70
0
0
VERTEX
5
5a4
100
AcDbEntity
8
1
100
AcDbVertex
100
AcDb2dVertex
62
3
10
880.258406
20
470.714859
0
VERTEX
5
5a5
100
AcDbEntity
8
1
100
AcDbVertex
100
AcDb2dVertex
62
3
10
880.258406
20
479.946662
0
VERTEX
5
5a6
100
AcDbEntity
8
1
100
AcDbVertex
100
AcDb2dVertex
62
3
10
880.766406
20
476.898662
0
VERTEX
5
5a7
100
AcDbEntity
8
1
100
AcDbVertex
100
AcDb2dVertex
62
3
10
879.750406
20
476.898662
0
VERTEX
5
5a8
100
AcDbEntity
8
1
100
AcDbVertex
100
AcDb2dVertex
62
3
10
880.258406
20
479.946662
0
VERTEX
5
5a9
100
AcDbEntity
8
1
100
AcDbVertex
100
AcDb2dVertex
62
3
10
880.512406
20
476.898662
0
VERTEX
5
5aa
100
AcDbEntity
8
1
100
AcDbVertex
100
AcDb2dVertex
62
3
10
880.004406
20
476.898662
0
VERTEX
5
5ab
100
AcDbEntity
8
1
100
AcDbVertex
100
AcDb2dVertex
62
3
10
880.258406
20
479.946662
0
SEQEND
5
5ac
100
AcDbEntity
8
1
0
LINE
5
5ad
100
AcDbEntity
8
1
100
AcDbLine
6
DOT2
62
3
10
880.258406
20
479.946662
11
880.258406
21
481.946662
0
POLYLINE
5
5ae
100
AcDbEntity
8
1
6
DOT2
62
3
100
AcDb2dPolyline
66
1
10
0.0
20
0.0
30
0.0
70
0
0
VERTEX
5
5af
100
AcDbEntity
8
1
100
AcDbVertex
100
AcDb2dVertex
62
3
10
880.258406
20
486.994662
0
VERTEX
5
5b0
100
AcDbEntity
8
1
100
AcDbVertex
100
AcDb2dVertex
62
3
10
880.258406
20
481.946662
0
VERTEX
5
5b1
100
AcDbEntity
8
1
100
AcDbVertex
100
AcDb2dVertex
62
3
10
879.750406
20
484.994662
0
VERTEX
5
5b2
100
AcDbEntity
8
1
100
AcDbVertex
100
AcDb2dVertex
62
3
10
880.766406
20
484.994662
0
VERTEX
5
5b3
100
AcDbEntity
8
1
100
AcDbVertex
100
AcDb2dVertex
62
3
10
880.258406
20
481.946662
0
VERTEX
5
5b4
100
AcDbEntity
8
1
100
AcDbVertex
100
AcDb2dVertex
62
3
10
880.004406
20
484.994662
0
VERTEX
5
5b5
100
AcDbEntity
8
1
100
AcDbVertex
100
AcDb2dVertex
62
3
10
880.512406
20
484.994662
0
VERTEX
5
5b6
100
AcDbEntity
8
1
100
AcDbVertex
100
AcDb2dVertex
62
3
10
880.258406
20
481.946662
0
SEQEND
5
5b7
100
AcDbEntity
8
1
0
TEXT
5
5b8
100
AcDbEntity
8
1
62
3
100
AcDbText
10
879.558006
20
471.510219
40
3.200000
41
0.825
1
10
50
90.000000
7
STANDARD
72
0
100
AcDbText
0
LINE
5
5b9
100
AcDbEntity
8
1
100
AcDbLine
6
DOT2
62
3
10
885.497102
20
479.946662
11
885.497102
21
463.446662
0
LINE
5
5ba
100
AcDbEntity
8
1
100
AcDbLine
6
DOT2
62
3
10
887.897102
20
479.946662
11
887.897102
21
463.446662
0
POLYLINE
5
5bb
100
AcDbEntity
8
1
6
DOT2
62
3
100
AcDb2dPolyline
66
1
10
0.0
20
0.0
30
0.0
70
0
0
VERTEX
5
5bc
100
AcDbEntity
8
1
100
AcDbVertex
100
AcDb2dVertex
62
3
10
911.503295
20
464.446662
0
VERTEX
5
5bd
100
AcDbEntity
8
1
100
AcDbVertex
100
AcDb2dVertex
62
3
10
887.897102
20
464.446662
0
VERTEX
5
5be
100
AcDbEntity
8
1
100
AcDbVertex
100
AcDb2dVertex
62
3
10
890.945102
20
464.954662
0
VERTEX
5
5bf
100
AcDbEntity
8
1
100
AcDbVertex
100
AcDb2dVertex
62
3
10
890.945102
20
463.938662
0
VERTEX
5
5c0
100
AcDbEntity
8
1
100
AcDbVertex
100
AcDb2dVertex
62
3
10
887.897102
20
464.446662
0
VERTEX
5
5c1
100
AcDbEntity
8
1
100
AcDbVertex
100
AcDb2dVertex
62
3
10
890.945102
20
464.700662
0
VERTEX
5
5c2
100
AcDbEntity
8
1
100
AcDbVertex
100
AcDb2dVertex
62
3
10
890.945102
20
464.192662
0
VERTEX
5
5c3
100
AcDbEntity
8
1
100
AcDbVertex
100
AcDb2dVertex
62
3
10
887.897102
20
464.446662
0
SEQEND
5
5c4
100
AcDbEntity
8
1
0
LINE
5
5c5
100
AcDbEntity
8
1
100
AcDbLine
6
DOT2
62
3
10
887.897102
20
464.446662
11
885.497102
21
464.446662
0
POLYLINE
5
5c6
100
AcDbEntity
8
1
6
DOT2
62
3
100
AcDb2dPolyline
66
1
10
0.0
20
0.0
30
0.0
70
0
0
VERTEX
5
5c7
100
AcDbEntity
8
1
100
AcDbVertex
100
AcDb2dVertex
62
3
10
880.449102
20
464.446662
0
VERTEX
5
5c8
100
AcDbEntity
8
1
100
AcDbVertex
100
AcDb2dVertex
62
3
10
885.497102
20
464.446662
0
VERTEX
5
5c9
100
AcDbEntity
8
1
100
AcDbVertex
100
AcDb2dVertex
62
3
10
882.449102
20
463.938662
0
VERTEX
5
5ca
100
AcDbEntity
8
1
100
AcDbVertex
100
AcDb2dVertex
62
3
10
882.449102
20
464.954662
0
VERTEX
5
5cb
100
AcDbEntity
8
1
100
AcDbVertex
100
AcDb2dVertex
62
3
10
885.497102
20
464.446662
0
VERTEX
5
5cc
100
AcDbEntity
8
1
100
AcDbVertex
100
AcDb2dVertex
62
3
10
882.449102
20
464.192662
0
VERTEX
5
5cd
100
AcDbEntity
8
1
100
AcDbVertex
100
AcDb2dVertex
62
3
10
882.449102
20
464.700662
0
VERTEX
5
5ce
100
AcDbEntity
8
1
100
AcDbVertex
100
AcDb2dVertex
62
3
10
885.497102
20
464.446662
0
SEQEND
5
5cf
100
AcDbEntity
8
1
0
TEXT
5
5d0
100
AcDbEntity
8
1
62
3
100
AcDbText
10
894.384095
20
465.147062
40
3.200000
41
0.825
1
12H8 
7
STANDARD
72
0
100
AcDbText
0
TEXT
5
5d1
100
AcDbEntity
8
1
62
3
100
AcDbText
10
894.764895
20
465.847462
40
1.600000
41
0.825
1
+0.027
7
STANDARD
72
0
100
AcDbText
0
TEXT
5
5d2
100
AcDbEntity
8
1
62
3
100
AcDbText
10
894.764895
20
464.607462
40
1.600000
41
0.825
1
0    
7
STANDARD
72
0
100
AcDbText
0
LINE
5
5d3
100
AcDbEntity
8
1
100
AcDbLine
6
DOT2
62
3
10
906.386010
20
483.946662
11
914.882538
21
483.946662
0
LINE
5
5d4
100
AcDbEntity
8
1
100
AcDbLine
6
DOT2
62
3
10
906.386010
20
479.946662
11
914.882538
21
479.946662
0
POLYLINE
5
5d5
100
AcDbEntity
8
1
6
DOT2
62
3
100
AcDb2dPolyline
66
1
10
0.0
20
0.0
30
0.0
70
0
0
VERTEX
5
5d6
100
AcDbEntity
8
1
100
AcDbVertex
100
AcDb2dVertex
62
3
10
913.882538
20
470.781004
0
VERTEX
5
5d7
100
AcDbEntity
8
1
100
AcDbVertex
100
AcDb2dVertex
62
3
10
913.882538
20
479.946662
0
VERTEX
5
5d8
100
AcDbEntity
8
1
100
AcDbVertex
100
AcDb2dVertex
62
3
10
914.390538
20
476.898662
0
VERTEX
5
5d9
100
AcDbEntity
8
1
100
AcDbVertex
100
AcDb2dVertex
62
3
10
913.374538
20
476.898662
0
VERTEX
5
5da
100
AcDbEntity
8
1
100
AcDbVertex
100
AcDb2dVertex
62
3
10
913.882538
20
479.946662
0
VERTEX
5
5db
100
AcDbEntity
8
1
100
AcDbVertex
100
AcDb2dVertex
62
3
10
914.136538
20
476.898662
0
VERTEX
5
5dc
100
AcDbEntity
8
1
100
AcDbVertex
100
AcDb2dVertex
62
3
10
913.628538
20
476.898662
0
VERTEX
5
5dd
100
AcDbEntity
8
1
100
AcDbVertex
100
AcDb2dVertex
62
3
10
913.882538
20
479.946662
0
SEQEND
5
5de
100
AcDbEntity
8
1
0
LINE
5
5df
100
AcDbEntity
8
1
100
AcDbLine
6
DOT2
62
3
10
913.882538
20
479.946662
11
913.882538
21
483.946662
0
POLYLINE
5
5e0
100
AcDbEntity
8
1
6
DOT2
62
3
100
AcDb2dPolyline
66
1
10
0.0
20
0.0
30
0.0
70
0
0
VERTEX
5
5e1
100
AcDbEntity
8
1
100
AcDbVertex
100
AcDb2dVertex
62
3
10
913.882538
20
488.994662
0
VERTEX
5
5e2
100
AcDbEntity
8
1
100
AcDbVertex
100
AcDb2dVertex
62
3
10
913.882538
20
483.946662
0
VERTEX
5
5e3
100
AcDbEntity
8
1
100
AcDbVertex
100
AcDb2dVertex
62
3
10
913.374538
20
486.994662
0
VERTEX
5
5e4
100
AcDbEntity
8
1
100
AcDbVertex
100
AcDb2dVertex
62
3
10
914.390538
20
486.994662
0
VERTEX
5
5e5
100
AcDbEntity
8
1
100
AcDbVertex
100
AcDb2dVertex
62
3
10
913.882538
20
483.946662
0
VERTEX
5
5e6
100
AcDbEntity
8
1
100
AcDbVertex
100
AcDb2dVertex
62
3
10
913.628538
20
486.994662
0
VERTEX
5
5e7
100
AcDbEntity
8
1
100
AcDbVertex
100
AcDb2dVertex
62
3
10
914.136538
20
486.994662
0
VERTEX
5
5e8
100
AcDbEntity
8
1
100
AcDbVertex
100
AcDb2dVertex
62
3
10
913.882538
20
483.946662
0
SEQEND
5
5e9
100
AcDbEntity
8
1
0
TEXT
5
5ea
100
AcDbEntity
8
1
62
3
100
AcDbText
10
913.182138
20
471.576364
40
3.200000
41
0.825
1
20
50
90.000000
7
STANDARD
72
0
100
AcDbText
0
LINE
5
5eb
100
AcDbEntity
8
1
100
AcDbLine
6
DOT2
62
3
10
945.297102
20
529.946662
11
957.707075
21
529.946662
0
LINE
5
5ec
100
AcDbEntity
8
1
100
AcDbLine
6
DOT2
62
3
10
917.168772
20
479.946662
11
957.707075
21
479.946662
0
POLYLINE
5
5ed
100
AcDbEntity
8
1
6
DOT2
62
3
100
AcDb2dPolyline
66
1
10
0.0
20
0.0
30
0.0
70
0
0
VERTEX
5
5ee
100
AcDbEntity
8
1
100
AcDbVertex
100
AcDb2dVertex
62
3
10
956.707075
20
504.073242
0
VERTEX
5
5ef
100
AcDbEntity
8
1
100
AcDbVertex
100
AcDb2dVertex
62
3
10
956.707075
20
479.946662
0
VERTEX
5
5f0
100
AcDbEntity
8
1
100
AcDbVertex
100
AcDb2dVertex
62
3
10
956.199075
20
482.994662
0
VERTEX
5
5f1
100
AcDbEntity
8
1
100
AcDbVertex
100
AcDb2dVertex
62
3
10
957.215075
20
482.994662
0
VERTEX
5
5f2
100
AcDbEntity
8
1
100
AcDbVertex
100
AcDb2dVertex
62
3
10
956.707075
20
479.946662
0
VERTEX
5
5f3
100
AcDbEntity
8
1
100
AcDbVertex
100
AcDb2dVertex
62
3
10
956.453075
20
482.994662
0
VERTEX
5
5f4
100
AcDbEntity
8
1
100
AcDbVertex
100
AcDb2dVertex
62
3
10
956.961075
20
482.994662
0
VERTEX
5
5f5
100
AcDbEntity
8
1
100
AcDbVertex
100
AcDb2dVertex
62
3
10
956.707075
20
479.946662
0
SEQEND
5
5f6
100
AcDbEntity
8
1
0
POLYLINE
5
5f7
100
AcDbEntity
8
1
6
DOT2
62
3
100
AcDb2dPolyline
66
1
10
0.0
20
0.0
30
0.0
70
0
0
VERTEX
5
5f8
100
AcDbEntity
8
1
100
AcDbVertex
100
AcDb2dVertex
62
3
10
956.707075
20
504.073242
0
VERTEX
5
5f9
100
AcDbEntity
8
1
100
AcDbVertex
100
AcDb2dVertex
62
3
10
956.707075
20
529.946662
0
VERTEX
5
5fa
100
AcDbEntity
8
1
100
AcDbVertex
100
AcDb2dVertex
62
3
10
957.215075
20
526.898662
0
VERTEX
5
5fb
100
AcDbEntity
8
1
100
AcDbVertex
100
AcDb2dVertex
62
3
10
956.199075
20
526.898662
0
VERTEX
5
5fc
100
AcDbEntity
8
1
100
AcDbVertex
100
AcDb2dVertex
62
3
10
956.707075
20
529.946662
0
VERTEX
5
5fd
100
AcDbEntity
8
1
100
AcDbVertex
100
AcDb2dVertex
62
3
10
956.961075
20
526.898662
0
VERTEX
5
5fe
100
AcDbEntity
8
1
100
AcDbVertex
100
AcDb2dVertex
62
3
10
956.453075
20
526.898662
0
VERTEX
5
5ff
100
AcDbEntity
8
1
100
AcDbVertex
100
AcDb2dVertex
62
3
10
956.707075
20
529.946662
0
SEQEND
5
600
100
AcDbEntity
8
1
0
TEXT
5
601
100
AcDbEntity
8
1
62
3
100
AcDbText
10
956.006675
20
499.188122
40
3.200000
41
0.825
1
(250)
50
90.000000
7
STANDARD
72
0
100
AcDbText
0
LINE
5
602
100
AcDbEntity
8
1
100
AcDbLine
6
DOT2
62
3
10
861.122552
20
581.537308
11
834.696885
21
581.537308
0
LINE
5
603
100
AcDbEntity
8
1
100
AcDbLine
6
DOT2
62
3
10
860.948920
20
557.537308
11
834.696885
21
557.537308
0
POLYLINE
5
604
100
AcDbEntity
8
1
6
DOT2
62
3
100
AcDb2dPolyline
66
1
10
0.0
20
0.0
30
0.0
70
0
0
VERTEX
5
605
100
AcDbEntity
8
1
100
AcDbVertex
100
AcDb2dVertex
62
3
10
835.696885
20
569.537308
0
VERTEX
5
606
100
AcDbEntity
8
1
100
AcDbVertex
100
AcDb2dVertex
62
3
10
835.696885
20
557.537308
0
VERTEX
5
607
100
AcDbEntity
8
1
100
AcDbVertex
100
AcDb2dVertex
62
3
10
835.188885
20
560.585308
0
VERTEX
5
608
100
AcDbEntity
8
1
100
AcDbVertex
100
AcDb2dVertex
62
3
10
836.204885
20
560.585308
0
VERTEX
5
609
100
AcDbEntity
8
1
100
AcDbVertex
100
AcDb2dVertex
62
3
10
835.696885
20
557.537308
0
VERTEX
5
60a
100
AcDbEntity
8
1
100
AcDbVertex
100
AcDb2dVertex
62
3
10
835.442885
20
560.585308
0
VERTEX
5
60b
100
AcDbEntity
8
1
100
AcDbVertex
100
AcDb2dVertex
62
3
10
835.950885
20
560.585308
0
VERTEX
5
60c
100
AcDbEntity
8
1
100
AcDbVertex
100
AcDb2dVertex
62
3
10
835.696885
20
557.537308
0
SEQEND
5
60d
100
AcDbEntity
8
1
0
POLYLINE
5
60e
100
AcDbEntity
8
1
6
DOT2
62
3
100
AcDb2dPolyline
66
1
10
0.0
20
0.0
30
0.0
70
0
0
VERTEX
5
60f
100
AcDbEntity
8
1
100
AcDbVertex
100
AcDb2dVertex
62
3
10
835.696885
20
569.537308
0
VERTEX
5
610
100
AcDbEntity
8
1
100
AcDbVertex
100
AcDb2dVertex
62
3
10
835.696885
20
581.537308
0
VERTEX
5
611
100
AcDbEntity
8
1
100
AcDbVertex
100
AcDb2dVertex
62
3
10
836.204885
20
578.489308
0
VERTEX
5
612
100
AcDbEntity
8
1
100
AcDbVertex
100
AcDb2dVertex
62
3
10
835.188885
20
578.489308
0
VERTEX
5
613
100
AcDbEntity
8
1
100
AcDbVertex
100
AcDb2dVertex
62
3
10
835.696885
20
581.537308
0
VERTEX
5
614
100
AcDbEntity
8
1
100
AcDbVertex
100
AcDb2dVertex
62
3
10
835.950885
20
578.489308
0
VERTEX
5
615
100
AcDbEntity
8
1
100
AcDbVertex
100
AcDb2dVertex
62
3
10
835.442885
20
578.489308
0
VERTEX
5
616
100
AcDbEntity
8
1
100
AcDbVertex
100
AcDb2dVertex
62
3
10
835.696885
20
581.537308
0
SEQEND
5
617
100
AcDbEntity
8
1
0
TEXT
5
618
100
AcDbEntity
8
1
62
3
100
AcDbText
10
834.996485
20
566.828188
40
3.200000
41
0.825
1
120
50
90.000000
7
STANDARD
72
0
100
AcDbText
0
LINE
5
619
100
AcDbEntity
8
1
100
AcDbLine
6
DOT2
62
3
10
779.212102
20
526.532448
11
779.212102
21
538.446662
0
LINE
5
61a
100
AcDbEntity
8
1
100
AcDbLine
6
DOT2
62
3
10
804.212102
20
526.532448
11
804.212102
21
538.446662
0
POLYLINE
5
61b
100
AcDbEntity
8
1
6
DOT2
62
3
100
AcDb2dPolyline
66
1
10
0.0
20
0.0
30
0.0
70
0
0
VERTEX
5
61c
100
AcDbEntity
8
1
100
AcDbVertex
100
AcDb2dVertex
62
3
10
791.712102
20
537.446662
0
VERTEX
5
61d
100
AcDbEntity
8
1
100
AcDbVertex
100
AcDb2dVertex
62
3
10
779.212102
20
537.446662
0
VERTEX
5
61e
100
AcDbEntity
8
1
100
AcDbVertex
100
AcDb2dVertex
62
3
10
782.260102
20
537.954662
0
VERTEX
5
61f
100
AcDbEntity
8
1
100
AcDbVertex
100
AcDb2dVertex
62
3
10
782.260102
20
536.938662
0
VERTEX
5
620
100
AcDbEntity
8
1
100
AcDbVertex
100
AcDb2dVertex
62
3
10
779.212102
20
537.446662
0
VERTEX
5
621
100
AcDbEntity
8
1
100
AcDbVertex
100
AcDb2dVertex
62
3
10
782.260102
20
537.700662
0
VERTEX
5
622
100
AcDbEntity
8
1
100
AcDbVertex
100
AcDb2dVertex
62
3
10
782.260102
20
537.192662
0
VERTEX
5
623
100
AcDbEntity
8
1
100
AcDbVertex
100
AcDb2dVertex
62
3
10
779.212102
20
537.446662
0
SEQEND
5
624
100
AcDbEntity
8
1
0
POLYLINE
5
625
100
AcDbEntity
8
1
6
DOT2
62
3
100
AcDb2dPolyline
66
1
10
0.0
20
0.0
30
0.0
70
0
0
VERTEX
5
626
100
AcDbEntity
8
1
100
AcDbVertex
100
AcDb2dVertex
62
3
10
791.712102
20
537.446662
0
VERTEX
5
627
100
AcDbEntity
8
1
100
AcDbVertex
100
AcDb2dVertex
62
3
10
804.212102
20
537.446662
0
VERTEX
5
628
100
AcDbEntity
8
1
100
AcDbVertex
100
AcDb2dVertex
62
3
10
801.164102
20
536.938662
0
VERTEX
5
629
100
AcDbEntity
8
1
100
AcDbVertex
100
AcDb2dVertex
62
3
10
801.164102
20
537.954662
0
VERTEX
5
62a
100
AcDbEntity
8
1
100
AcDbVertex
100
AcDb2dVertex
62
3
10
804.212102
20
537.446662
0
VERTEX
5
62b
100
AcDbEntity
8
1
100
AcDbVertex
100
AcDb2dVertex
62
3
10
801.164102
20
537.192662
0
VERTEX
5
62c
100
AcDbEntity
8
1
100
AcDbVertex
100
AcDb2dVertex
62
3
10
801.164102
20
537.700662
0
VERTEX
5
62d
100
AcDbEntity
8
1
100
AcDbVertex
100
AcDb2dVertex
62
3
10
804.212102
20
537.446662
0
SEQEND
5
62e
100
AcDbEntity
8
1
0
TEXT
5
62f
100
AcDbEntity
8
1
62
3
100
AcDbText
10
789.002982
20
538.147062
40
3.200000
41
0.825
1
125
7
STANDARD
72
0
100
AcDbText
0
LINE
5
630
100
AcDbEntity
8
1
100
AcDbLine
6
DOT2
62
3
10
847.696885
20
501.446662
11
832.696885
21
501.446662
0
LINE
5
631
100
AcDbEntity
8
1
100
AcDbLine
6
DOT2
62
3
10
847.696885
20
488.446662
11
832.696885
21
488.446662
0
POLYLINE
5
632
100
AcDbEntity
8
1
6
DOT2
62
3
100
AcDb2dPolyline
66
1
10
0.0
20
0.0
30
0.0
70
0
0
VERTEX
5
633
100
AcDbEntity
8
1
100
AcDbVertex
100
AcDb2dVertex
62
3
10
833.696885
20
494.946662
0
VERTEX
5
634
100
AcDbEntity
8
1
100
AcDbVertex
100
AcDb2dVertex
62
3
10
833.696885
20
488.446662
0
VERTEX
5
635
100
AcDbEntity
8
1
100
AcDbVertex
100
AcDb2dVertex
62
3
10
833.188885
20
491.494662
0
VERTEX
5
636
100
AcDbEntity
8
1
100
AcDbVertex
100
AcDb2dVertex
62
3
10
834.204885
20
491.494662
0
VERTEX
5
637
100
AcDbEntity
8
1
100
AcDbVertex
100
AcDb2dVertex
62
3
10
833.696885
20
488.446662
0
VERTEX
5
638
100
AcDbEntity
8
1
100
AcDbVertex
100
AcDb2dVertex
62
3
10
833.442885
20
491.494662
0
VERTEX
5
639
100
AcDbEntity
8
1
100
AcDbVertex
100
AcDb2dVertex
62
3
10
833.950885
20
491.494662
0
VERTEX
5
63a
100
AcDbEntity
8
1
100
AcDbVertex
100
AcDb2dVertex
62
3
10
833.696885
20
488.446662
0
SEQEND
5
63b
100
AcDbEntity
8
1
0
POLYLINE
5
63c
100
AcDbEntity
8
1
6
DOT2
62
3
100
AcDb2dPolyline
66
1
10
0.0
20
0.0
30
0.0
70
0
0
VERTEX
5
63d
100
AcDbEntity
8
1
100
AcDbVertex
100
AcDb2dVertex
62
3
10
833.696885
20
494.946662
0
VERTEX
5
63e
100
AcDbEntity
8
1
100
AcDbVertex
100
AcDb2dVertex
62
3
10
833.696885
20
501.446662
0
VERTEX
5
63f
100
AcDbEntity
8
1
100
AcDbVertex
100
AcDb2dVertex
62
3
10
834.204885
20
498.398662
0
VERTEX
5
640
100
AcDbEntity
8
1
100
AcDbVertex
100
AcDb2dVertex
62
3
10
833.188885
20
498.398662
0
VERTEX
5
641
100
AcDbEntity
8
1
100
AcDbVertex
100
AcDb2dVertex
62
3
10
833.696885
20
501.446662
0
VERTEX
5
642
100
AcDbEntity
8
1
100
AcDbVertex
100
AcDb2dVertex
62
3
10
833.950885
20
498.398662
0
VERTEX
5
643
100
AcDbEntity
8
1
100
AcDbVertex
100
AcDb2dVertex
62
3
10
833.442885
20
498.398662
0
VERTEX
5
644
100
AcDbEntity
8
1
100
AcDbVertex
100
AcDb2dVertex
62
3
10
833.696885
20
501.446662
0
SEQEND
5
645
100
AcDbEntity
8
1
0
TEXT
5
646
100
AcDbEntity
8
1
62
3
100
AcDbText
10
832.996485
20
492.237542
40
3.200000
41
0.825
1
%%c65
50
90.000000
7
STANDARD
72
0
100
AcDbText
0
LINE
5
647
100
AcDbEntity
8
1
100
AcDbLine
6
DOT2
62
3
10
846.696667
20
492.146662
11
846.696667
21
445.446662
0
LINE
5
648
100
AcDbEntity
8
1
100
AcDbLine
6
DOT2
62
3
10
856.696885
20
479.946662
11
856.696885
21
445.446662
0
POLYLINE
5
649
100
AcDbEntity
8
1
6
DOT2
62
3
100
AcDb2dPolyline
66
1
10
0.0
20
0.0
30
0.0
70
0
0
VERTEX
5
64a
100
AcDbEntity
8
1
100
AcDbVertex
100
AcDb2dVertex
62
3
10
841.648667
20
446.446662
0
VERTEX
5
64b
100
AcDbEntity
8
1
100
AcDbVertex
100
AcDb2dVertex
62
3
10
846.696667
20
446.446662
0
VERTEX
5
64c
100
AcDbEntity
8
1
100
AcDbVertex
100
AcDb2dVertex
62
3
10
843.648667
20
445.938662
0
VERTEX
5
64d
100
AcDbEntity
8
1
100
AcDbVertex
100
AcDb2dVertex
62
3
10
843.648667
20
446.954662
0
VERTEX
5
64e
100
AcDbEntity
8
1
100
AcDbVertex
100
AcDb2dVertex
62
3
10
846.696667
20
446.446662
0
VERTEX
5
64f
100
AcDbEntity
8
1
100
AcDbVertex
100
AcDb2dVertex
62
3
10
843.648667
20
446.192662
0
VERTEX
5
650
100
AcDbEntity
8
1
100
AcDbVertex
100
AcDb2dVertex
62
3
10
843.648667
20
446.700662
0
VERTEX
5
651
100
AcDbEntity
8
1
100
AcDbVertex
100
AcDb2dVertex
62
3
10
846.696667
20
446.446662
0
SEQEND
5
652
100
AcDbEntity
8
1
0
LINE
5
653
100
AcDbEntity
8
1
100
AcDbLine
6
DOT2
62
3
10
846.696667
20
446.446662
11
856.696885
21
446.446662
0
POLYLINE
5
654
100
AcDbEntity
8
1
6
DOT2
62
3
100
AcDb2dPolyline
66
1
10
0.0
20
0.0
30
0.0
70
0
0
VERTEX
5
655
100
AcDbEntity
8
1
100
AcDbVertex
100
AcDb2dVertex
62
3
10
861.744885
20
446.446662
0
VERTEX
5
656
100
AcDbEntity
8
1
100
AcDbVertex
100
AcDb2dVertex
62
3
10
856.696885
20
446.446662
0
VERTEX
5
657
100
AcDbEntity
8
1
100
AcDbVertex
100
AcDb2dVertex
62
3
10
859.744885
20
446.954662
0
VERTEX
5
658
100
AcDbEntity
8
1
100
AcDbVertex
100
AcDb2dVertex
62
3
10
859.744885
20
445.938662
0
VERTEX
5
659
100
AcDbEntity
8
1
100
AcDbVertex
100
AcDb2dVertex
62
3
10
856.696885
20
446.446662
0
VERTEX
5
65a
100
AcDbEntity
8
1
100
AcDbVertex
100
AcDb2dVertex
62
3
10
859.744885
20
446.700662
0
VERTEX
5
65b
100
AcDbEntity
8
1
100
AcDbVertex
100
AcDb2dVertex
62
3
10
859.744885
20
446.192662
0
VERTEX
5
65c
100
AcDbEntity
8
1
100
AcDbVertex
100
AcDb2dVertex
62
3
10
856.696885
20
446.446662
0
SEQEND
5
65d
100
AcDbEntity
8
1
0
TEXT
5
65e
100
AcDbEntity
8
1
62
3
100
AcDbText
10
850.239120
20
447.147062
40
3.200000
41
0.825
1
50
7
STANDARD
72
0
100
AcDbText
0
LINE
5
65f
100
AcDbEntity
8
1
100
AcDbLine
6
DOT2
62
3
10
846.696667
20
492.146662
11
846.696667
21
451.446662
0
LINE
5
660
100
AcDbEntity
8
1
100
AcDbLine
6
DOT2
62
3
10
862.696885
20
478.946662
11
862.696885
21
451.446662
0
POLYLINE
5
661
100
AcDbEntity
8
1
6
DOT2
62
3
100
AcDb2dPolyline
66
1
10
0.0
20
0.0
30
0.0
70
0
0
VERTEX
5
662
100
AcDbEntity
8
1
100
AcDbVertex
100
AcDb2dVertex
62
3
10
854.175344
20
452.446662
0
VERTEX
5
663
100
AcDbEntity
8
1
100
AcDbVertex
100
AcDb2dVertex
62
3
10
846.696667
20
452.446662
0
VERTEX
5
664
100
AcDbEntity
8
1
100
AcDbVertex
100
AcDb2dVertex
62
3
10
849.744667
20
452.954662
0
VERTEX
5
665
100
AcDbEntity
8
1
100
AcDbVertex
100
AcDb2dVertex
62
3
10
849.744667
20
451.938662
0
VERTEX
5
666
100
AcDbEntity
8
1
100
AcDbVertex
100
AcDb2dVertex
62
3
10
846.696667
20
452.446662
0
VERTEX
5
667
100
AcDbEntity
8
1
100
AcDbVertex
100
AcDb2dVertex
62
3
10
849.744667
20
452.700662
0
VERTEX
5
668
100
AcDbEntity
8
1
100
AcDbVertex
100
AcDb2dVertex
62
3
10
849.744667
20
452.192662
0
VERTEX
5
669
100
AcDbEntity
8
1
100
AcDbVertex
100
AcDb2dVertex
62
3
10
846.696667
20
452.446662
0
SEQEND
5
66a
100
AcDbEntity
8
1
0
POLYLINE
5
66b
100
AcDbEntity
8
1
6
DOT2
62
3
100
AcDb2dPolyline
66
1
10
0.0
20
0.0
30
0.0
70
0
0
VERTEX
5
66c
100
AcDbEntity
8
1
100
AcDbVertex
100
AcDb2dVertex
62
3
10
854.175344
20
452.446662
0
VERTEX
5
66d
100
AcDbEntity
8
1
100
AcDbVertex
100
AcDb2dVertex
62
3
10
862.696885
20
452.446662
0
VERTEX
5
66e
100
AcDbEntity
8
1
100
AcDbVertex
100
AcDb2dVertex
62
3
10
859.648885
20
451.938662
0
VERTEX
5
66f
100
AcDbEntity
8
1
100
AcDbVertex
100
AcDb2dVertex
62
3
10
859.648885
20
452.954662
0
VERTEX
5
670
100
AcDbEntity
8
1
100
AcDbVertex
100
AcDb2dVertex
62
3
10
862.696885
20
452.446662
0
VERTEX
5
671
100
AcDbEntity
8
1
100
AcDbVertex
100
AcDb2dVertex
62
3
10
859.648885
20
452.192662
0
VERTEX
5
672
100
AcDbEntity
8
1
100
AcDbVertex
100
AcDb2dVertex
62
3
10
859.648885
20
452.700662
0
VERTEX
5
673
100
AcDbEntity
8
1
100
AcDbVertex
100
AcDb2dVertex
62
3
10
862.696885
20
452.446662
0
SEQEND
5
674
100
AcDbEntity
8
1
0
TEXT
5
675
100
AcDbEntity
8
1
62
3
100
AcDbText
10
852.554224
20
453.147062
40
3.200000
41
0.825
1
80
7
STANDARD
72
0
100
AcDbText
0
LINE
5
676
100
AcDbEntity
8
1
100
AcDbLine
6
DOT2
62
3
10
846.896885
20
496.946662
11
838.196885
21
496.946662
0
LINE
5
677
100
AcDbEntity
8
1
100
AcDbLine
6
DOT2
62
3
10
846.896885
20
492.946662
11
838.196885
21
492.946662
0
POLYLINE
5
678
100
AcDbEntity
8
1
6
DOT2
62
3
100
AcDb2dPolyline
66
1
10
0.0
20
0.0
30
0.0
70
0
0
VERTEX
5
679
100
AcDbEntity
8
1
100
AcDbVertex
100
AcDb2dVertex
62
3
10
839.196885
20
467.914739
0
VERTEX
5
67a
100
AcDbEntity
8
1
100
AcDbVertex
100
AcDb2dVertex
62
3
10
839.196885
20
492.946662
0
VERTEX
5
67b
100
AcDbEntity
8
1
100
AcDbVertex
100
AcDb2dVertex
62
3
10
839.704885
20
489.898662
0
VERTEX
5
67c
100
AcDbEntity
8
1
100
AcDbVertex
100
AcDb2dVertex
62
3
10
838.688885
20
489.898662
0
VERTEX
5
67d
100
AcDbEntity
8
1
100
AcDbVertex
100
AcDb2dVertex
62
3
10
839.196885
20
492.946662
0
VERTEX
5
67e
100
AcDbEntity
8
1
100
AcDbVertex
100
AcDb2dVertex
62
3
10
839.450885
20
489.898662
0
VERTEX
5
67f
100
AcDbEntity
8
1
100
AcDbVertex
100
AcDb2dVertex
62
3
10
838.942885
20
489.898662
0
VERTEX
5
680
100
AcDbEntity
8
1
100
AcDbVertex
100
AcDb2dVertex
62
3
10
839.196885
20
492.946662
0
SEQEND
5
681
100
AcDbEntity
8
1
0
LINE
5
682
100
AcDbEntity
8
1
100
AcDbLine
6
DOT2
62
3
10
839.196885
20
492.946662
11
839.196885
21
496.946662
0
POLYLINE
5
683
100
AcDbEntity
8
1
6
DOT2
62
3
100
AcDb2dPolyline
66
1
10
0.0
20
0.0
30
0.0
70
0
0
VERTEX
5
684
100
AcDbEntity
8
1
100
AcDbVertex
100
AcDb2dVertex
62
3
10
839.196885
20
501.994662
0
VERTEX
5
685
100
AcDbEntity
8
1
100
AcDbVertex
100
AcDb2dVertex
62
3
10
839.196885
20
496.946662
0
VERTEX
5
686
100
AcDbEntity
8
1
100
AcDbVertex
100
AcDb2dVertex
62
3
10
838.688885
20
499.994662
0
VERTEX
5
687
100
AcDbEntity
8
1
100
AcDbVertex
100
AcDb2dVertex
62
3
10
839.704885
20
499.994662
0
VERTEX
5
688
100
AcDbEntity
8
1
100
AcDbVertex
100
AcDb2dVertex
62
3
10
839.196885
20
496.946662
0
VERTEX
5
689
100
AcDbEntity
8
1
100
AcDbVertex
100
AcDb2dVertex
62
3
10
838.942885
20
499.994662
0
VERTEX
5
68a
100
AcDbEntity
8
1
100
AcDbVertex
100
AcDb2dVertex
62
3
10
839.450885
20
499.994662
0
VERTEX
5
68b
100
AcDbEntity
8
1
100
AcDbVertex
100
AcDb2dVertex
62
3
10
839.196885
20
496.946662
0
SEQEND
5
68c
100
AcDbEntity
8
1
0
TEXT
5
68d
100
AcDbEntity
8
1
62
3
100
AcDbText
10
838.496485
20
470.654099
40
3.200000
41
0.825
1
%%c20H7 
50
90.000000
7
STANDARD
72
0
100
AcDbText
0
TEXT
5
68e
100
AcDbEntity
8
1
62
3
100
AcDbText
10
837.311485
20
486.974099
40
1.600000
41
0.825
1
+0.021
50
90.000000
7
STANDARD
72
0
100
AcDbText
0
TEXT
5
68f
100
AcDbEntity
8
1
62
3
100
AcDbText
10
838.551485
20
486.974099
40
1.600000
41
0.825
1
0    
50
90.000000
7
STANDARD
72
0
100
AcDbText
0
LINE
5
690
100
AcDbEntity
8
1
100
AcDbLine
6
DOT2
62
3
10
846.696667
20
492.146662
11
846.696667
21
463.446662
0
LINE
5
691
100
AcDbEntity
8
1
100
AcDbLine
6
DOT2
62
3
10
854.697102
20
485.146662
11
854.697102
21
463.446662
0
POLYLINE
5
692
100
AcDbEntity
8
1
6
DOT2
62
3
100
AcDb2dPolyline
66
1
10
0.0
20
0.0
30
0.0
70
0
0
VERTEX
5
693
100
AcDbEntity
8
1
100
AcDbVertex
100
AcDb2dVertex
62
3
10
841.648667
20
464.446662
0
VERTEX
5
694
100
AcDbEntity
8
1
100
AcDbVertex
100
AcDb2dVertex
62
3
10
846.696667
20
464.446662
0
VERTEX
5
695
100
AcDbEntity
8
1
100
AcDbVertex
100
AcDb2dVertex
62
3
10
843.648667
20
463.938662
0
VERTEX
5
696
100
AcDbEntity
8
1
100
AcDbVertex
100
AcDb2dVertex
62
3
10
843.648667
20
464.954662
0
VERTEX
5
697
100
AcDbEntity
8
1
100
AcDbVertex
100
AcDb2dVertex
62
3
10
846.696667
20
464.446662
0
VERTEX
5
698
100
AcDbEntity
8
1
100
AcDbVertex
100
AcDb2dVertex
62
3
10
843.648667
20
464.192662
0
VERTEX
5
699
100
AcDbEntity
8
1
100
AcDbVertex
100
AcDb2dVertex
62
3
10
843.648667
20
464.700662
0
VERTEX
5
69a
100
AcDbEntity
8
1
100
AcDbVertex
100
AcDb2dVertex
62
3
10
846.696667
20
464.446662
0
SEQEND
5
69b
100
AcDbEntity
8
1
0
LINE
5
69c
100
AcDbEntity
8
1
100
AcDbLine
6
DOT2
62
3
10
846.696667
20
464.446662
11
854.697102
21
464.446662
0
POLYLINE
5
69d
100
AcDbEntity
8
1
6
DOT2
62
3
100
AcDb2dPolyline
66
1
10
0.0
20
0.0
30
0.0
70
0
0
VERTEX
5
69e
100
AcDbEntity
8
1
100
AcDbVertex
100
AcDb2dVertex
62
3
10
859.745102
20
464.446662
0
VERTEX
5
69f
100
AcDbEntity
8
1
100
AcDbVertex
100
AcDb2dVertex
62
3
10
854.697102
20
464.446662
0
VERTEX
5
6a0
100
AcDbEntity
8
1
100
AcDbVertex
100
AcDb2dVertex
62
3
10
857.745102
20
464.954662
0
VERTEX
5
6a1
100
AcDbEntity
8
1
100
AcDbVertex
100
AcDb2dVertex
62
3
10
857.745102
20
463.938662
0
VERTEX
5
6a2
100
AcDbEntity
8
1
100
AcDbVertex
100
AcDb2dVertex
62
3
10
854.697102
20
464.446662
0
VERTEX
5
6a3
100
AcDbEntity
8
1
100
AcDbVertex
100
AcDb2dVertex
62
3
10
857.745102
20
464.700662
0
VERTEX
5
6a4
100
AcDbEntity
8
1
100
AcDbVertex
100
AcDb2dVertex
62
3
10
857.745102
20
464.192662
0
VERTEX
5
6a5
100
AcDbEntity
8
1
100
AcDbVertex
100
AcDb2dVertex
62
3
10
854.697102
20
464.446662
0
SEQEND
5
6a6
100
AcDbEntity
8
1
0
TEXT
5
6a7
100
AcDbEntity
8
1
62
3
100
AcDbText
10
849.040305
20
465.147062
40
3.200000
41
0.825
1
40
7
STANDARD
72
0
100
AcDbText
0
LINE
5
6a8
100
AcDbEntity
8
1
100
AcDbLine
6
DOT2
62
3
10
806.236801
20
494.946662
11
814.811885
21
494.946662
0
LINE
5
6a9
100
AcDbEntity
8
1
100
AcDbLine
6
DOT2
62
3
10
806.311885
20
479.946662
11
814.811885
21
479.946662
0
POLYLINE
5
6aa
100
AcDbEntity
8
1
6
DOT2
62
3
100
AcDb2dPolyline
66
1
10
0.0
20
0.0
30
0.0
70
0
0
VERTEX
5
6ab
100
AcDbEntity
8
1
100
AcDbVertex
100
AcDb2dVertex
62
3
10
813.811885
20
487.642449
0
VERTEX
5
6ac
100
AcDbEntity
8
1
100
AcDbVertex
100
AcDb2dVertex
62
3
10
813.811885
20
479.946662
0
VERTEX
5
6ad
100
AcDbEntity
8
1
100
AcDbVertex
100
AcDb2dVertex
62
3
10
813.303885
20
482.994662
0
VERTEX
5
6ae
100
AcDbEntity
8
1
100
AcDbVertex
100
AcDb2dVertex
62
3
10
814.319885
20
482.994662
0
VERTEX
5
6af
100
AcDbEntity
8
1
100
AcDbVertex
100
AcDb2dVertex
62
3
10
813.811885
20
479.946662
0
VERTEX
5
6b0
100
AcDbEntity
8
1
100
AcDbVertex
100
AcDb2dVertex
62
3
10
813.557885
20
482.994662
0
VERTEX
5
6b1
100
AcDbEntity
8
1
100
AcDbVertex
100
AcDb2dVertex
62
3
10
814.065885
20
482.994662
0
VERTEX
5
6b2
100
AcDbEntity
8
1
100
AcDbVertex
100
AcDb2dVertex
62
3
10
813.811885
20
479.946662
0
SEQEND
5
6b3
100
AcDbEntity
8
1
0
POLYLINE
5
6b4
100
AcDbEntity
8
1
6
DOT2
62
3
100
AcDb2dPolyline
66
1
10
0.0
20
0.0
30
0.0
70
0
0
VERTEX
5
6b5
100
AcDbEntity
8
1
100
AcDbVertex
100
AcDb2dVertex
62
3
10
813.811885
20
487.642449
0
VERTEX
5
6b6
100
AcDbEntity
8
1
100
AcDbVertex
100
AcDb2dVertex
62
3
10
813.811885
20
494.946662
0
VERTEX
5
6b7
100
AcDbEntity
8
1
100
AcDbVertex
100
AcDb2dVertex
62
3
10
814.319885
20
491.898662
0
VERTEX
5
6b8
100
AcDbEntity
8
1
100
AcDbVertex
100
AcDb2dVertex
62
3
10
813.303885
20
491.898662
0
VERTEX
5
6b9
100
AcDbEntity
8
1
100
AcDbVertex
100
AcDb2dVertex
62
3
10
813.811885
20
494.946662
0
VERTEX
5
6ba
100
AcDbEntity
8
1
100
AcDbVertex
100
AcDb2dVertex
62
3
10
814.065885
20
491.898662
0
VERTEX
5
6bb
100
AcDbEntity
8
1
100
AcDbVertex
100
AcDb2dVertex
62
3
10
813.557885
20
491.898662
0
VERTEX
5
6bc
100
AcDbEntity
8
1
100
AcDbVertex
100
AcDb2dVertex
62
3
10
813.811885
20
494.946662
0
SEQEND
5
6bd
100
AcDbEntity
8
1
0
TEXT
5
6be
100
AcDbEntity
8
1
62
3
100
AcDbText
10
813.111485
20
486.021329
40
3.200000
41
0.825
1
75
50
90.000000
7
STANDARD
72
0
100
AcDbText
0
LINE
5
6bf
100
AcDbEntity
8
1
100
AcDbLine
6
DOT2
62
3
10
777.111885
20
479.946662
11
777.111885
21
463.446662
0
LINE
5
6c0
100
AcDbEntity
8
1
100
AcDbLine
6
DOT2
62
3
10
806.311885
20
479.946662
11
806.311885
21
463.446662
0
POLYLINE
5
6c1
100
AcDbEntity
8
1
6
DOT2
62
3
100
AcDb2dPolyline
66
1
10
0.0
20
0.0
30
0.0
70
0
0
VERTEX
5
6c2
100
AcDbEntity
8
1
100
AcDbVertex
100
AcDb2dVertex
62
3
10
791.712102
20
464.446662
0
VERTEX
5
6c3
100
AcDbEntity
8
1
100
AcDbVertex
100
AcDb2dVertex
62
3
10
777.111885
20
464.446662
0
VERTEX
5
6c4
100
AcDbEntity
8
1
100
AcDbVertex
100
AcDb2dVertex
62
3
10
780.159885
20
464.954662
0
VERTEX
5
6c5
100
AcDbEntity
8
1
100
AcDbVertex
100
AcDb2dVertex
62
3
10
780.159885
20
463.938662
0
VERTEX
5
6c6
100
AcDbEntity
8
1
100
AcDbVertex
100
AcDb2dVertex
62
3
10
777.111885
20
464.446662
0
VERTEX
5
6c7
100
AcDbEntity
8
1
100
AcDbVertex
100
AcDb2dVertex
62
3
10
780.159885
20
464.700662
0
VERTEX
5
6c8
100
AcDbEntity
8
1
100
AcDbVertex
100
AcDb2dVertex
62
3
10
780.159885
20
464.192662
0
VERTEX
5
6c9
100
AcDbEntity
8
1
100
AcDbVertex
100
AcDb2dVertex
62
3
10
777.111885
20
464.446662
0
SEQEND
5
6ca
100
AcDbEntity
8
1
0
POLYLINE
5
6cb
100
AcDbEntity
8
1
6
DOT2
62
3
100
AcDb2dPolyline
66
1
10
0.0
20
0.0
30
0.0
70
0
0
VERTEX
5
6cc
100
AcDbEntity
8
1
100
AcDbVertex
100
AcDb2dVertex
62
3
10
791.712102
20
464.446662
0
VERTEX
5
6cd
100
AcDbEntity
8
1
100
AcDbVertex
100
AcDb2dVertex
62
3
10
806.311885
20
464.446662
0
VERTEX
5
6ce
100
AcDbEntity
8
1
100
AcDbVertex
100
AcDb2dVertex
62
3
10
803.263885
20
463.938662
0
VERTEX
5
6cf
100
AcDbEntity
8
1
100
AcDbVertex
100
AcDb2dVertex
62
3
10
803.263885
20
464.954662
0
VERTEX
5
6d0
100
AcDbEntity
8
1
100
AcDbVertex
100
AcDb2dVertex
62
3
10
806.311885
20
464.446662
0
VERTEX
5
6d1
100
AcDbEntity
8
1
100
AcDbVertex
100
AcDb2dVertex
62
3
10
803.263885
20
464.192662
0
VERTEX
5
6d2
100
AcDbEntity
8
1
100
AcDbVertex
100
AcDb2dVertex
62
3
10
803.263885
20
464.700662
0
VERTEX
5
6d3
100
AcDbEntity
8
1
100
AcDbVertex
100
AcDb2dVertex
62
3
10
806.311885
20
464.446662
0
SEQEND
5
6d4
100
AcDbEntity
8
1
0
TEXT
5
6d5
100
AcDbEntity
8
1
62
3
100
AcDbText
10
789.002982
20
465.147062
40
3.200000
41
0.825
1
146
7
STANDARD
72
0
100
AcDbText
0
LINE
5
6d6
100
AcDbEntity
8
1
100
AcDbLine
6
DOT2
62
3
10
790.512102
20
479.946662
11
790.512102
21
469.446662
0
LINE
5
6d7
100
AcDbEntity
8
1
100
AcDbLine
6
DOT2
62
3
10
792.912102
20
479.946662
11
792.912102
21
469.446662
0
POLYLINE
5
6d8
100
AcDbEntity
8
1
6
DOT2
62
3
100
AcDb2dPolyline
66
1
10
0.0
20
0.0
30
0.0
70
0
0
VERTEX
5
6d9
100
AcDbEntity
8
1
100
AcDbVertex
100
AcDb2dVertex
62
3
10
815.252787
20
470.446662
0
VERTEX
5
6da
100
AcDbEntity
8
1
100
AcDbVertex
100
AcDb2dVertex
62
3
10
792.912102
20
470.446662
0
VERTEX
5
6db
100
AcDbEntity
8
1
100
AcDbVertex
100
AcDb2dVertex
62
3
10
795.960102
20
470.954662
0
VERTEX
5
6dc
100
AcDbEntity
8
1
100
AcDbVertex
100
AcDb2dVertex
62
3
10
795.960102
20
469.938662
0
VERTEX
5
6dd
100
AcDbEntity
8
1
100
AcDbVertex
100
AcDb2dVertex
62
3
10
792.912102
20
470.446662
0
VERTEX
5
6de
100
AcDbEntity
8
1
100
AcDbVertex
100
AcDb2dVertex
62
3
10
795.960102
20
470.700662
0
VERTEX
5
6df
100
AcDbEntity
8
1
100
AcDbVertex
100
AcDb2dVertex
62
3
10
795.960102
20
470.192662
0
VERTEX
5
6e0
100
AcDbEntity
8
1
100
AcDbVertex
100
AcDb2dVertex
62
3
10
792.912102
20
470.446662
0
SEQEND
5
6e1
100
AcDbEntity
8
1
0
LINE
5
6e2
100
AcDbEntity
8
1
100
AcDbLine
6
DOT2
62
3
10
792.912102
20
470.446662
11
790.512102
21
470.446662
0
POLYLINE
5
6e3
100
AcDbEntity
8
1
6
DOT2
62
3
100
AcDb2dPolyline
66
1
10
0.0
20
0.0
30
0.0
70
0
0
VERTEX
5
6e4
100
AcDbEntity
8
1
100
AcDbVertex
100
AcDb2dVertex
62
3
10
785.464102
20
470.446662
0
VERTEX
5
6e5
100
AcDbEntity
8
1
100
AcDbVertex
100
AcDb2dVertex
62
3
10
790.512102
20
470.446662
0
VERTEX
5
6e6
100
AcDbEntity
8
1
100
AcDbVertex
100
AcDb2dVertex
62
3
10
787.464102
20
469.938662
0
VERTEX
5
6e7
100
AcDbEntity
8
1
100
AcDbVertex
100
AcDb2dVertex
62
3
10
787.464102
20
470.954662
0
VERTEX
5
6e8
100
AcDbEntity
8
1
100
AcDbVertex
100
AcDb2dVertex
62
3
10
790.512102
20
470.446662
0
VERTEX
5
6e9
100
AcDbEntity
8
1
100
AcDbVertex
100
AcDb2dVertex
62
3
10
787.464102
20
470.192662
0
VERTEX
5
6ea
100
AcDbEntity
8
1
100
AcDbVertex
100
AcDb2dVertex
62
3
10
787.464102
20
470.700662
0
VERTEX
5
6eb
100
AcDbEntity
8
1
100
AcDbVertex
100
AcDb2dVertex
62
3
10
790.512102
20
470.446662
0
SEQEND
5
6ec
100
AcDbEntity
8
1
0
TEXT
5
6ed
100
AcDbEntity
8
1
62
3
100
AcDbText
10
798.133587
20
471.147062
40
3.200000
41
0.825
1
12H8 
7
STANDARD
72
0
100
AcDbText
0
TEXT
5
6ee
100
AcDbEntity
8
1
62
3
100
AcDbText
10
798.514387
20
471.847462
40
1.600000
41
0.825
1
+0.027
7
STANDARD
72
0
100
AcDbText
0
TEXT
5
6ef
100
AcDbEntity
8
1
62
3
100
AcDbText
10
798.514387
20
470.607462
40
1.600000
41
0.825
1
0    
7
STANDARD
72
0
100
AcDbText
0
LINE
5
6f0
100
AcDbEntity
8
1
100
AcDbLine
6
DOT2
62
3
10
846.696667
20
497.746662
11
846.696667
21
517.446662
0
LINE
5
6f1
100
AcDbEntity
8
1
100
AcDbLine
6
DOT2
62
3
10
851.696885
20
498.403543
11
851.696885
21
517.446662
0
POLYLINE
5
6f2
100
AcDbEntity
8
1
6
DOT2
62
3
100
AcDb2dPolyline
66
1
10
0.0
20
0.0
30
0.0
70
0
0
VERTEX
5
6f3
100
AcDbEntity
8
1
100
AcDbVertex
100
AcDb2dVertex
62
3
10
841.648667
20
516.446662
0
VERTEX
5
6f4
100
AcDbEntity
8
1
100
AcDbVertex
100
AcDb2dVertex
62
3
10
846.696667
20
516.446662
0
VERTEX
5
6f5
100
AcDbEntity
8
1
100
AcDbVertex
100
AcDb2dVertex
62
3
10
843.648667
20
515.938662
0
VERTEX
5
6f6
100
AcDbEntity
8
1
100
AcDbVertex
100
AcDb2dVertex
62
3
10
843.648667
20
516.954662
0
VERTEX
5
6f7
100
AcDbEntity
8
1
100
AcDbVertex
100
AcDb2dVertex
62
3
10
846.696667
20
516.446662
0
VERTEX
5
6f8
100
AcDbEntity
8
1
100
AcDbVertex
100
AcDb2dVertex
62
3
10
843.648667
20
516.192662
0
VERTEX
5
6f9
100
AcDbEntity
8
1
100
AcDbVertex
100
AcDb2dVertex
62
3
10
843.648667
20
516.700662
0
VERTEX
5
6fa
100
AcDbEntity
8
1
100
AcDbVertex
100
AcDb2dVertex
62
3
10
846.696667
20
516.446662
0
SEQEND
5
6fb
100
AcDbEntity
8
1
0
LINE
5
6fc
100
AcDbEntity
8
1
100
AcDbLine
6
DOT2
62
3
10
846.696667
20
516.446662
11
851.696885
21
516.446662
0
POLYLINE
5
6fd
100
AcDbEntity
8
1
6
DOT2
62
3
100
AcDb2dPolyline
66
1
10
0.0
20
0.0
30
0.0
70
0
0
VERTEX
5
6fe
100
AcDbEntity
8
1
100
AcDbVertex
100
AcDb2dVertex
62
3
10
856.744885
20
516.446662
0
VERTEX
5
6ff
100
AcDbEntity
8
1
100
AcDbVertex
100
AcDb2dVertex
62
3
10
851.696885
20
516.446662
0
VERTEX
5
700
100
AcDbEntity
8
1
100
AcDbVertex
100
AcDb2dVertex
62
3
10
854.744885
20
516.954662
0
VERTEX
5
701
100
AcDbEntity
8
1
100
AcDbVertex
100
AcDb2dVertex
62
3
10
854.744885
20
515.938662
0
VERTEX
5
702
100
AcDbEntity
8
1
100
AcDbVertex
100
AcDb2dVertex
62
3
10
851.696885
20
516.446662
0
VERTEX
5
703
100
AcDbEntity
8
1
100
AcDbVertex
100
AcDb2dVertex
62
3
10
854.744885
20
516.700662
0
VERTEX
5
704
100
AcDbEntity
8
1
100
AcDbVertex
100
AcDb2dVertex
62
3
10
854.744885
20
516.192662
0
VERTEX
5
705
100
AcDbEntity
8
1
100
AcDbVertex
100
AcDb2dVertex
62
3
10
851.696885
20
516.446662
0
SEQEND
5
706
100
AcDbEntity
8
1
0
TEXT
5
707
100
AcDbEntity
8
1
62
3
100
AcDbText
10
847.642408
20
517.147062
40
3.200000
41
0.825
1
25
7
STANDARD
72
0
100
AcDbText
0
LINE
5
708
100
AcDbEntity
8
1
100
AcDbLine
6
DOT2
62
3
10
826.696885
20
500.446662
11
826.696885
21
526.446662
0
LINE
5
709
100
AcDbEntity
8
1
100
AcDbLine
6
DOT2
62
3
10
846.696667
20
497.746662
11
846.696667
21
526.446662
0
POLYLINE
5
70a
100
AcDbEntity
8
1
6
DOT2
62
3
100
AcDb2dPolyline
66
1
10
0.0
20
0.0
30
0.0
70
0
0
VERTEX
5
70b
100
AcDbEntity
8
1
100
AcDbVertex
100
AcDb2dVertex
62
3
10
836.826952
20
525.446662
0
VERTEX
5
70c
100
AcDbEntity
8
1
100
AcDbVertex
100
AcDb2dVertex
62
3
10
826.696885
20
525.446662
0
VERTEX
5
70d
100
AcDbEntity
8
1
100
AcDbVertex
100
AcDb2dVertex
62
3
10
829.744885
20
525.954662
0
VERTEX
5
70e
100
AcDbEntity
8
1
100
AcDbVertex
100
AcDb2dVertex
62
3
10
829.744885
20
524.938662
0
VERTEX
5
70f
100
AcDbEntity
8
1
100
AcDbVertex
100
AcDb2dVertex
62
3
10
826.696885
20
525.446662
0
VERTEX
5
710
100
AcDbEntity
8
1
100
AcDbVertex
100
AcDb2dVertex
62
3
10
829.744885
20
525.700662
0
VERTEX
5
711
100
AcDbEntity
8
1
100
AcDbVertex
100
AcDb2dVertex
62
3
10
829.744885
20
525.192662
0
VERTEX
5
712
100
AcDbEntity
8
1
100
AcDbVertex
100
AcDb2dVertex
62
3
10
826.696885
20
525.446662
0
SEQEND
5
713
100
AcDbEntity
8
1
0
POLYLINE
5
714
100
AcDbEntity
8
1
6
DOT2
62
3
100
AcDb2dPolyline
66
1
10
0.0
20
0.0
30
0.0
70
0
0
VERTEX
5
715
100
AcDbEntity
8
1
100
AcDbVertex
100
AcDb2dVertex
62
3
10
836.826952
20
525.446662
0
VERTEX
5
716
100
AcDbEntity
8
1
100
AcDbVertex
100
AcDb2dVertex
62
3
10
846.696667
20
525.446662
0
VERTEX
5
717
100
AcDbEntity
8
1
100
AcDbVertex
100
AcDb2dVertex
62
3
10
843.648667
20
524.938662
0
VERTEX
5
718
100
AcDbEntity
8
1
100
AcDbVertex
100
AcDb2dVertex
62
3
10
843.648667
20
525.954662
0
VERTEX
5
719
100
AcDbEntity
8
1
100
AcDbVertex
100
AcDb2dVertex
62
3
10
846.696667
20
525.446662
0
VERTEX
5
71a
100
AcDbEntity
8
1
100
AcDbVertex
100
AcDb2dVertex
62
3
10
843.648667
20
525.192662
0
VERTEX
5
71b
100
AcDbEntity
8
1
100
AcDbVertex
100
AcDb2dVertex
62
3
10
843.648667
20
525.700662
0
VERTEX
5
71c
100
AcDbEntity
8
1
100
AcDbVertex
100
AcDb2dVertex
62
3
10
846.696667
20
525.446662
0
SEQEND
5
71d
100
AcDbEntity
8
1
0
TEXT
5
71e
100
AcDbEntity
8
1
62
3
100
AcDbText
10
834.117832
20
526.147062
40
3.200000
41
0.825
1
100
7
STANDARD
72
0
100
AcDbText
0
LINE
5
71f
100
AcDbEntity
8
1
100
AcDbLine
6
DOT2
62
3
10
806.311885
20
479.946662
11
823.311885
21
479.946662
0
LINE
5
720
100
AcDbEntity
8
1
100
AcDbLine
6
DOT2
62
3
10
791.712102
20
529.946662
11
823.311885
21
529.946662
0
POLYLINE
5
721
100
AcDbEntity
8
1
6
DOT2
62
3
100
AcDb2dPolyline
66
1
10
0.0
20
0.0
30
0.0
70
0
0
VERTEX
5
722
100
AcDbEntity
8
1
100
AcDbVertex
100
AcDb2dVertex
62
3
10
822.311885
20
505.392984
0
VERTEX
5
723
100
AcDbEntity
8
1
100
AcDbVertex
100
AcDb2dVertex
62
3
10
822.311885
20
479.946662
0
VERTEX
5
724
100
AcDbEntity
8
1
100
AcDbVertex
100
AcDb2dVertex
62
3
10
821.803885
20
482.994662
0
VERTEX
5
725
100
AcDbEntity
8
1
100
AcDbVertex
100
AcDb2dVertex
62
3
10
822.819885
20
482.994662
0
VERTEX
5
726
100
AcDbEntity
8
1
100
AcDbVertex
100
AcDb2dVertex
62
3
10
822.311885
20
479.946662
0
VERTEX
5
727
100
AcDbEntity
8
1
100
AcDbVertex
100
AcDb2dVertex
62
3
10
822.057885
20
482.994662
0
VERTEX
5
728
100
AcDbEntity
8
1
100
AcDbVertex
100
AcDb2dVertex
62
3
10
822.565885
20
482.994662
0
VERTEX
5
729
100
AcDbEntity
8
1
100
AcDbVertex
100
AcDb2dVertex
62
3
10
822.311885
20
479.946662
0
SEQEND
5
72a
100
AcDbEntity
8
1
0
POLYLINE
5
72b
100
AcDbEntity
8
1
6
DOT2
62
3
100
AcDb2dPolyline
66
1
10
0.0
20
0.0
30
0.0
70
0
0
VERTEX
5
72c
100
AcDbEntity
8
1
100
AcDbVertex
100
AcDb2dVertex
62
3
10
822.311885
20
505.392984
0
VERTEX
5
72d
100
AcDbEntity
8
1
100
AcDbVertex
100
AcDb2dVertex
62
3
10
822.311885
20
529.946662
0
VERTEX
5
72e
100
AcDbEntity
8
1
100
AcDbVertex
100
AcDb2dVertex
62
3
10
822.819885
20
526.898662
0
VERTEX
5
72f
100
AcDbEntity
8
1
100
AcDbVertex
100
AcDb2dVertex
62
3
10
821.803885
20
526.898662
0
VERTEX
5
730
100
AcDbEntity
8
1
100
AcDbVertex
100
AcDb2dVertex
62
3
10
822.311885
20
529.946662
0
VERTEX
5
731
100
AcDbEntity
8
1
100
AcDbVertex
100
AcDb2dVertex
62
3
10
822.565885
20
526.898662
0
VERTEX
5
732
100
AcDbEntity
8
1
100
AcDbVertex
100
AcDb2dVertex
62
3
10
822.057885
20
526.898662
0
VERTEX
5
733
100
AcDbEntity
8
1
100
AcDbVertex
100
AcDb2dVertex
62
3
10
822.311885
20
529.946662
0
SEQEND
5
734
100
AcDbEntity
8
1
0
TEXT
5
735
100
AcDbEntity
8
1
62
3
100
AcDbText
10
821.611485
20
502.683864
40
3.200000
41
0.825
1
250
50
90.000000
7
STANDARD
72
0
100
AcDbText
0
LINE
5
736
100
AcDbEntity
8
1
100
AcDbLine
6
DOT2
62
3
10
856.696885
20
479.946662
11
856.696885
21
445.446662
0
LINE
5
737
100
AcDbEntity
8
1
100
AcDbLine
6
DOT2
62
3
10
916.697102
20
479.946662
11
916.697102
21
445.446662
0
POLYLINE
5
738
100
AcDbEntity
8
1
6
DOT2
62
3
100
AcDb2dPolyline
66
1
10
0.0
20
0.0
30
0.0
70
0
0
VERTEX
5
739
100
AcDbEntity
8
1
100
AcDbVertex
100
AcDb2dVertex
62
3
10
884.218782
20
446.446662
0
VERTEX
5
73a
100
AcDbEntity
8
1
100
AcDbVertex
100
AcDb2dVertex
62
3
10
856.696885
20
446.446662
0
VERTEX
5
73b
100
AcDbEntity
8
1
100
AcDbVertex
100
AcDb2dVertex
62
3
10
859.744885
20
446.954662
0
VERTEX
5
73c
100
AcDbEntity
8
1
100
AcDbVertex
100
AcDb2dVertex
62
3
10
859.744885
20
445.938662
0
VERTEX
5
73d
100
AcDbEntity
8
1
100
AcDbVertex
100
AcDb2dVertex
62
3
10
856.696885
20
446.446662
0
VERTEX
5
73e
100
AcDbEntity
8
1
100
AcDbVertex
100
AcDb2dVertex
62
3
10
859.744885
20
446.700662
0
VERTEX
5
73f
100
AcDbEntity
8
1
100
AcDbVertex
100
AcDb2dVertex
62
3
10
859.744885
20
446.192662
0
VERTEX
5
740
100
AcDbEntity
8
1
100
AcDbVertex
100
AcDb2dVertex
62
3
10
856.696885
20
446.446662
0
SEQEND
5
741
100
AcDbEntity
8
1
0
POLYLINE
5
742
100
AcDbEntity
8
1
6
DOT2
62
3
100
AcDb2dPolyline
66
1
10
0.0
20
0.0
30
0.0
70
0
0
VERTEX
5
743
100
AcDbEntity
8
1
100
AcDbVertex
100
AcDb2dVertex
62
3
10
884.218782
20
446.446662
0
VERTEX
5
744
100
AcDbEntity
8
1
100
AcDbVertex
100
AcDb2dVertex
62
3
10
916.697102
20
446.446662
0
VERTEX
5
745
100
AcDbEntity
8
1
100
AcDbVertex
100
AcDb2dVertex
62
3
10
913.649102
20
445.938662
0
VERTEX
5
746
100
AcDbEntity
8
1
100
AcDbVertex
100
AcDb2dVertex
62
3
10
913.649102
20
446.954662
0
VERTEX
5
747
100
AcDbEntity
8
1
100
AcDbVertex
100
AcDb2dVertex
62
3
10
916.697102
20
446.446662
0
VERTEX
5
748
100
AcDbEntity
8
1
100
AcDbVertex
100
AcDb2dVertex
62
3
10
913.649102
20
446.192662
0
VERTEX
5
749
100
AcDbEntity
8
1
100
AcDbVertex
100
AcDb2dVertex
62
3
10
913.649102
20
446.700662
0
VERTEX
5
74a
100
AcDbEntity
8
1
100
AcDbVertex
100
AcDb2dVertex
62
3
10
916.697102
20
446.446662
0
SEQEND
5
74b
100
AcDbEntity
8
1
0
TEXT
5
74c
100
AcDbEntity
8
1
62
3
100
AcDbText
10
881.509662
20
447.147062
40
3.200000
41
0.825
1
300
7
STANDARD
72
0
100
AcDbText
0
LINE
5
74d
100
AcDbEntity
8
1
100
AcDbLine
6
DOT2
62
3
10
862.696885
20
478.946662
11
862.696885
21
451.446662
0
LINE
5
74e
100
AcDbEntity
8
1
100
AcDbLine
6
DOT2
62
3
10
902.696885
20
478.946662
11
902.696885
21
451.446662
0
POLYLINE
5
74f
100
AcDbEntity
8
1
6
DOT2
62
3
100
AcDb2dPolyline
66
1
10
0.0
20
0.0
30
0.0
70
0
0
VERTEX
5
750
100
AcDbEntity
8
1
100
AcDbVertex
100
AcDb2dVertex
62
3
10
883.985066
20
452.446662
0
VERTEX
5
751
100
AcDbEntity
8
1
100
AcDbVertex
100
AcDb2dVertex
62
3
10
862.696885
20
452.446662
0
VERTEX
5
752
100
AcDbEntity
8
1
100
AcDbVertex
100
AcDb2dVertex
62
3
10
865.744885
20
452.954662
0
VERTEX
5
753
100
AcDbEntity
8
1
100
AcDbVertex
100
AcDb2dVertex
62
3
10
865.744885
20
451.938662
0
VERTEX
5
754
100
AcDbEntity
8
1
100
AcDbVertex
100
AcDb2dVertex
62
3
10
862.696885
20
452.446662
0
VERTEX
5
755
100
AcDbEntity
8
1
100
AcDbVertex
100
AcDb2dVertex
62
3
10
865.744885
20
452.700662
0
VERTEX
5
756
100
AcDbEntity
8
1
100
AcDbVertex
100
AcDb2dVertex
62
3
10
865.744885
20
452.192662
0
VERTEX
5
757
100
AcDbEntity
8
1
100
AcDbVertex
100
AcDb2dVertex
62
3
10
862.696885
20
452.446662
0
SEQEND
5
758
100
AcDbEntity
8
1
0
POLYLINE
5
759
100
AcDbEntity
8
1
6
DOT2
62
3
100
AcDb2dPolyline
66
1
10
0.0
20
0.0
30
0.0
70
0
0
VERTEX
5
75a
100
AcDbEntity
8
1
100
AcDbVertex
100
AcDb2dVertex
62
3
10
883.985066
20
452.446662
0
VERTEX
5
75b
100
AcDbEntity
8
1
100
AcDbVertex
100
AcDb2dVertex
62
3
10
902.696885
20
452.446662
0
VERTEX
5
75c
100
AcDbEntity
8
1
100
AcDbVertex
100
AcDb2dVertex
62
3
10
899.648885
20
451.938662
0
VERTEX
5
75d
100
AcDbEntity
8
1
100
AcDbVertex
100
AcDb2dVertex
62
3
10
899.648885
20
452.954662
0
VERTEX
5
75e
100
AcDbEntity
8
1
100
AcDbVertex
100
AcDb2dVertex
62
3
10
902.696885
20
452.446662
0
VERTEX
5
75f
100
AcDbEntity
8
1
100
AcDbVertex
100
AcDb2dVertex
62
3
10
899.648885
20
452.192662
0
VERTEX
5
760
100
AcDbEntity
8
1
100
AcDbVertex
100
AcDb2dVertex
62
3
10
899.648885
20
452.700662
0
VERTEX
5
761
100
AcDbEntity
8
1
100
AcDbVertex
100
AcDb2dVertex
62
3
10
902.696885
20
452.446662
0
SEQEND
5
762
100
AcDbEntity
8
1
0
TEXT
5
763
100
AcDbEntity
8
1
62
3
100
AcDbText
10
881.275946
20
453.147062
40
3.200000
41
0.825
1
200
7
STANDARD
72
0
100
AcDbText
0
LINE
5
764
100
AcDbEntity
8
1
100
AcDbLine
6
DOT2
62
3
10
846.696667
20
492.146662
11
846.696667
21
457.446662
0
LINE
5
765
100
AcDbEntity
8
1
100
AcDbLine
6
DOT2
62
3
10
886.697102
20
479.574085
11
886.697102
21
457.446662
0
POLYLINE
5
766
100
AcDbEntity
8
1
6
DOT2
62
3
100
AcDb2dPolyline
66
1
10
0.0
20
0.0
30
0.0
70
0
0
VERTEX
5
767
100
AcDbEntity
8
1
100
AcDbVertex
100
AcDb2dVertex
62
3
10
868.727427
20
458.446662
0
VERTEX
5
768
100
AcDbEntity
8
1
100
AcDbVertex
100
AcDb2dVertex
62
3
10
846.696667
20
458.446662
0
VERTEX
5
769
100
AcDbEntity
8
1
100
AcDbVertex
100
AcDb2dVertex
62
3
10
849.744667
20
458.954662
0
VERTEX
5
76a
100
AcDbEntity
8
1
100
AcDbVertex
100
AcDb2dVertex
62
3
10
849.744667
20
457.938662
0
VERTEX
5
76b
100
AcDbEntity
8
1
100
AcDbVertex
100
AcDb2dVertex
62
3
10
846.696667
20
458.446662
0
VERTEX
5
76c
100
AcDbEntity
8
1
100
AcDbVertex
100
AcDb2dVertex
62
3
10
849.744667
20
458.700662
0
VERTEX
5
76d
100
AcDbEntity
8
1
100
AcDbVertex
100
AcDb2dVertex
62
3
10
849.744667
20
458.192662
0
VERTEX
5
76e
100
AcDbEntity
8
1
100
AcDbVertex
100
AcDb2dVertex
62
3
10
846.696667
20
458.446662
0
SEQEND
5
76f
100
AcDbEntity
8
1
0
POLYLINE
5
770
100
AcDbEntity
8
1
6
DOT2
62
3
100
AcDb2dPolyline
66
1
10
0.0
20
0.0
30
0.0
70
0
0
VERTEX
5
771
100
AcDbEntity
8
1
100
AcDbVertex
100
AcDb2dVertex
62
3
10
868.727427
20
458.446662
0
VERTEX
5
772
100
AcDbEntity
8
1
100
AcDbVertex
100
AcDb2dVertex
62
3
10
886.697102
20
458.446662
0
VERTEX
5
773
100
AcDbEntity
8
1
100
AcDbVertex
100
AcDb2dVertex
62
3
10
883.649102
20
457.938662
0
VERTEX
5
774
100
AcDbEntity
8
1
100
AcDbVertex
100
AcDb2dVertex
62
3
10
883.649102
20
458.954662
0
VERTEX
5
775
100
AcDbEntity
8
1
100
AcDbVertex
100
AcDb2dVertex
62
3
10
886.697102
20
458.446662
0
VERTEX
5
776
100
AcDbEntity
8
1
100
AcDbVertex
100
AcDb2dVertex
62
3
10
883.649102
20
458.192662
0
VERTEX
5
777
100
AcDbEntity
8
1
100
AcDbVertex
100
AcDb2dVertex
62
3
10
883.649102
20
458.700662
0
VERTEX
5
778
100
AcDbEntity
8
1
100
AcDbVertex
100
AcDb2dVertex
62
3
10
886.697102
20
458.446662
0
SEQEND
5
779
100
AcDbEntity
8
1
0
TEXT
5
77a
100
AcDbEntity
8
1
62
3
100
AcDbText
10
866.018307
20
459.147062
40
3.200000
41
0.825
1
200
7
STANDARD
72
0
100
AcDbText
0
LINE
5
77b
100
AcDbEntity
8
1
100
AcDbLine
6
DOT2
62
3
10
945.697102
20
529.546662
11
945.697102
21
542.946662
0
LINE
5
77c
100
AcDbEntity
8
1
100
AcDbLine
6
DOT2
62
3
10
846.696667
20
497.746662
11
846.696667
21
542.946662
0
POLYLINE
5
77d
100
AcDbEntity
8
1
6
DOT2
62
3
100
AcDb2dPolyline
66
1
10
0.0
20
0.0
30
0.0
70
0
0
VERTEX
5
77e
100
AcDbEntity
8
1
100
AcDbVertex
100
AcDb2dVertex
62
3
10
896.196885
20
541.946662
0
VERTEX
5
77f
100
AcDbEntity
8
1
100
AcDbVertex
100
AcDb2dVertex
62
3
10
846.696667
20
541.946662
0
VERTEX
5
780
100
AcDbEntity
8
1
100
AcDbVertex
100
AcDb2dVertex
62
3
10
849.744667
20
542.454662
0
VERTEX
5
781
100
AcDbEntity
8
1
100
AcDbVertex
100
AcDb2dVertex
62
3
10
849.744667
20
541.438662
0
VERTEX
5
782
100
AcDbEntity
8
1
100
AcDbVertex
100
AcDb2dVertex
62
3
10
846.696667
20
541.946662
0
VERTEX
5
783
100
AcDbEntity
8
1
100
AcDbVertex
100
AcDb2dVertex
62
3
10
849.744667
20
542.200662
0
VERTEX
5
784
100
AcDbEntity
8
1
100
AcDbVertex
100
AcDb2dVertex
62
3
10
849.744667
20
541.692662
0
VERTEX
5
785
100
AcDbEntity
8
1
100
AcDbVertex
100
AcDb2dVertex
62
3
10
846.696667
20
541.946662
0
SEQEND
5
786
100
AcDbEntity
8
1
0
POLYLINE
5
787
100
AcDbEntity
8
1
6
DOT2
62
3
100
AcDb2dPolyline
66
1
10
0.0
20
0.0
30
0.0
70
0
0
VERTEX
5
788
100
AcDbEntity
8
1
100
AcDbVertex
100
AcDb2dVertex
62
3
10
896.196885
20
541.946662
0
VERTEX
5
789
100
AcDbEntity
8
1
100
AcDbVertex
100
AcDb2dVertex
62
3
10
945.697102
20
541.946662
0
VERTEX
5
78a
100
AcDbEntity
8
1
100
AcDbVertex
100
AcDb2dVertex
62
3
10
942.649102
20
541.438662
0
VERTEX
5
78b
100
AcDbEntity
8
1
100
AcDbVertex
100
AcDb2dVertex
62
3
10
942.649102
20
542.454662
0
VERTEX
5
78c
100
AcDbEntity
8
1
100
AcDbVertex
100
AcDb2dVertex
62
3
10
945.697102
20
541.946662
0
VERTEX
5
78d
100
AcDbEntity
8
1
100
AcDbVertex
100
AcDb2dVertex
62
3
10
942.649102
20
541.692662
0
VERTEX
5
78e
100
AcDbEntity
8
1
100
AcDbVertex
100
AcDb2dVertex
62
3
10
942.649102
20
542.200662
0
VERTEX
5
78f
100
AcDbEntity
8
1
100
AcDbVertex
100
AcDb2dVertex
62
3
10
945.697102
20
541.946662
0
SEQEND
5
790
100
AcDbEntity
8
1
0
TEXT
5
791
100
AcDbEntity
8
1
62
3
100
AcDbText
10
893.487765
20
542.647062
40
3.200000
41
0.825
1
495
7
STANDARD
72
0
100
AcDbText
0
LINE
5
792
100
AcDbEntity
8
1
100
AcDbLine
6
DOT2
62
3
10
861.396858
20
555.337308
11
861.396858
21
546.417478
0
LINE
5
793
100
AcDbEntity
8
1
100
AcDbLine
6
DOT2
62
3
10
863.996858
20
555.337308
11
863.996858
21
546.417478
0
POLYLINE
5
794
100
AcDbEntity
8
1
6
DOT2
62
3
100
AcDb2dPolyline
66
1
10
0.0
20
0.0
30
0.0
70
0
0
VERTEX
5
795
100
AcDbEntity
8
1
100
AcDbVertex
100
AcDb2dVertex
62
3
10
872.482618
20
547.417478
0
VERTEX
5
796
100
AcDbEntity
8
1
100
AcDbVertex
100
AcDb2dVertex
62
3
10
863.996858
20
547.417478
0
VERTEX
5
797
100
AcDbEntity
8
1
100
AcDbVertex
100
AcDb2dVertex
62
3
10
867.044858
20
547.925478
0
VERTEX
5
798
100
AcDbEntity
8
1
100
AcDbVertex
100
AcDb2dVertex
62
3
10
867.044858
20
546.909478
0
VERTEX
5
799
100
AcDbEntity
8
1
100
AcDbVertex
100
AcDb2dVertex
62
3
10
863.996858
20
547.417478
0
VERTEX
5
79a
100
AcDbEntity
8
1
100
AcDbVertex
100
AcDb2dVertex
62
3
10
867.044858
20
547.671478
0
VERTEX
5
79b
100
AcDbEntity
8
1
100
AcDbVertex
100
AcDb2dVertex
62
3
10
867.044858
20
547.163478
0
VERTEX
5
79c
100
AcDbEntity
8
1
100
AcDbVertex
100
AcDb2dVertex
62
3
10
863.996858
20
547.417478
0
SEQEND
5
79d
100
AcDbEntity
8
1
0
LINE
5
79e
100
AcDbEntity
8
1
100
AcDbLine
6
DOT2
62
3
10
863.996858
20
547.417478
11
861.396858
21
547.417478
0
POLYLINE
5
79f
100
AcDbEntity
8
1
6
DOT2
62
3
100
AcDb2dPolyline
66
1
10
0.0
20
0.0
30
0.0
70
0
0
VERTEX
5
7a0
100
AcDbEntity
8
1
100
AcDbVertex
100
AcDb2dVertex
62
3
10
856.348858
20
547.417478
0
VERTEX
5
7a1
100
AcDbEntity
8
1
100
AcDbVertex
100
AcDb2dVertex
62
3
10
861.396858
20
547.417478
0
VERTEX
5
7a2
100
AcDbEntity
8
1
100
AcDbVertex
100
AcDb2dVertex
62
3
10
858.348858
20
546.909478
0
VERTEX
5
7a3
100
AcDbEntity
8
1
100
AcDbVertex
100
AcDb2dVertex
62
3
10
858.348858
20
547.925478
0
VERTEX
5
7a4
100
AcDbEntity
8
1
100
AcDbVertex
100
AcDb2dVertex
62
3
10
861.396858
20
547.417478
0
VERTEX
5
7a5
100
AcDbEntity
8
1
100
AcDbVertex
100
AcDb2dVertex
62
3
10
858.348858
20
547.163478
0
VERTEX
5
7a6
100
AcDbEntity
8
1
100
AcDbVertex
100
AcDb2dVertex
62
3
10
858.348858
20
547.671478
0
VERTEX
5
7a7
100
AcDbEntity
8
1
100
AcDbVertex
100
AcDb2dVertex
62
3
10
861.396858
20
547.417478
0
SEQEND
5
7a8
100
AcDbEntity
8
1
0
TEXT
5
7a9
100
AcDbEntity
8
1
62
3
100
AcDbText
10
868.363418
20
548.117878
40
3.200000
41
0.825
1
13
7
STANDARD
72
0
100
AcDbText
0
ENDSEC
0
SECTION
2
OBJECTS
0
DICTIONARY
5
7aa
100
AcDbDictionary
3
ACAD_GROUP
350
7ab
3
ACAD_MLINESTYLE
350
7ac
0
DICTIONARY
5
7ab
102
{ACAD_REACTORS
330
7aa
102
}
100
AcDbDictionary
0
DICTIONARY
5
7ac
102
{ACAD_REACTORS
330
7aa
102
}
100
AcDbDictionary
3
STANDARD
350
7ad
0
MLINESTYLE
5
7ad
102
{ACAD_REACTORS
330
7ac
102
}
100
AcDbMlineStyle
2
STANDARD
70
0
3

62
0
51
90.0
52
90.0
71
2
49
0.5
62
256
6
BYLAYER
49
-0.5
62
256
6
BYLAYER
0
ENDSEC
0
EOF
